Dream Theater

Início > Dream Thea... > acordes

Strange Deja Vu Tablatura

Dream Theater

Dificultad:ExpertoExperto

tuner correct add songbook print version text version salvar en e-mail
acordesukuleletablaturabaixobateriaarmónicaflautacavacopiano Guitar Pro
acordes

Strange Deja Vu

	       Ab5                 Ab(#11)               N.C.
     Gtr.1 (Elec. Gtr.)
                                             w/slight P.M._ _ _
E||-----------------------------|------------------------------| 
B||-----------------------------|------------------------------| 
G||4-8-8-8-8---8-8-8-8---7-7-7--|---7-7-7-7--------------------| 
D||4-6-6-6-6---6-6-6-6---6-6-6--|---6-6-6-6------6-------7-----| 
A||-----------------------------|------------------5-------6---| 
E||--4-4-4-4---4-4-4-4---4-4-4--|---4-4-4-4--0-4-----4-5-----5-|
 
 
 
 
   Ab5                 Ab(#11)              
   Gtr.1 
E|----------------------------|---------------------| 
B|----------------------------|---------------------| 
G|-8-8-8-8---8-8-8-8---7-7-7--|---7-7-7-7-----------| 
D|-6-6-6-6---6-6-6-6---6-6-6--|---6-6-6-6-----------| 
A|----------------------------|---------------------| 
E|-4-4-4-4---4-4-4-4---4-4-4--|---4-4-4-4-----------|
                  Sub-con-scious strange sen-sa-tion.
 
 
 
   Ab5                 Ab(#11)               N.C.
   Gtr.1
                                           w/slight P.M._ _ _
E|----------------------------|------------------------------| 
B|----------------------------|------------------------------| 
G|-8-8-8-8---8-8-8-8---7-7-7--|---7-7-7-7--------------------| 
D|-6-6-6-6---6-6-6-6---6-6-6--|---6-6-6-6------6-------7-----| 
A|----------------------------|------------------5-------6---| 
E|-4-4-4-4---4-4-4-4---4-4-4--|---4-4-4-4--0-4-----4-5-----5-|
                  Un-con-scious re - lax-a - tion.
 
 
 
   F5                  F(#11)
   Gtr.1
E|----------------------------|---------------------| 
B|----------------------------|---------------------| 
G|-5-5-5-5---5-5-5-5---4-4-4--|---4-4-4-4-----------| 
D|-3-3-3-3---3-3-3-3---3-3-3--|---3-3-3-3-----------| 
A|----------------------------|---------------------| 
E|-1-1-1-1---1-1-1-1---1-1-1--|---1-1-1-1-----------|
                       What a pleas-ant night-mare,
 
 
 
   F5                  F(#11)                N.C
   Gtr.1
                                           w/slight P.M._ _ _
E|----------------------------|------------------------------| 
B|----------------------------|------------------------------| 
G|-5-5-5-5---5-5-5-5---4-4-4--|---4-4-4-4--------------------| 
D|-3-3-3-3---3-3-3-3---3-3-3--|---3-3-3-3------3-------4-----| 
A|----------------------------|------------------2-------3---| 
E|-1-1-1-1---1-1-1-1---1-1-1--|---1-1-1-1--0-1-----1-2-----2-|
                      and I can?t wait to get__ there a-gain.
 
 
 
   Ab5                 Ab(#11)              
   Gtr.1 
E|----------------------------|---------------------| 
B|----------------------------|---------------------| 
G|-8-8-8-8---8-8-8-8---7-7-7--|---7-7-7-7-----------| 
D|-6-6-6-6---6-6-6-6---6-6-6--|---6-6-6-6-----------| 
A|----------------------------|---------------------| 
E|-4-4-4-4---4-4-4-4---4-4-4--|---4-4-4-4-----------|
                      Ev-?ry time_I close_my_eyes_
 
 
 
   Ab5                 Ab(#11)               N.C.
   Gtr.1
                                           w/slight P.M._ _ _
E|----------------------------|------------------------------| 
B|----------------------------|------------------------------| 
G|-8-8-8-8---8-8-8-8---7-7-7--|---7-7-7-7--------------------| 
D|-6-6-6-6---6-6-6-6---6-6-6--|---6-6-6-6------6-------7-----| 
A|----------------------------|------------------5-------6---| 
E|-4-4-4-4---4-4-4-4---4-4-4--|---4-4-4-4--0-4-----4-5-----5-|
                  there?s an ? oth?er viv ? id sur-prise.__
 
 
 
   F5                  F(#11)
   Gtr.1
E|----------------------------|---------------------| 
B|----------------------------|---------------------| 
G|-5-5-5-5---5-5-5-5---4-4-4--|---4-4-4-4-----------| 
D|-3-3-3-3---3-3-3-3---3-3-3--|---3-3-3-3-----------| 
A|----------------------------|---------------------| 
E|-1-1-1-1---1-1-1-1---1-1-1--|---1-1-1-1-----------|
                     An-oth-er whole life wait-ing,
 
 
 
   F5                  F(#11)                N.C
   Gtr.1
                                           w/slight P.M._ _ _
E|----------------------------|------------------------------| 
B|----------------------------|------------------------------| 
G|-5-5-5-5---5-5-5-5---4-4-4--|---4-4-4-4--------------------| 
D|-3-3-3-3---3-3-3-3---3-3-3--|---3-3-3-3------3-------4-----| 
A|----------------------------|------------------2-------3---| 
E|-1-1-1-1---1-1-1-1---1-1-1--|---1-1-1-1--0-1-----1-2-----2-|
                      chap-ters un-fin-ished fad - ing.
 
 
 
    G#5
    Gtr.1
                                P.M.     P.M.
E|-----------------------|----------------------------| 
B|-----------------------|----------------------------| 
G|3----------------------|4---------------------------| 
D|4----------------------|4-6--------4----------------| 
A|-----------------------|--------------------6-7-6-4-| 
E|--4-1-2-5--5-4---4-2-4-|------4--4-----4--4---------|
                            clos  -  er___ now.
 
 
 
 
    Gtr.1
                                P.M.     P.M.
E|-----------------------|----------------------------| 
B|-----------------------|----------------------------| 
G|3----------------------|4---------------------------| 
D|4----------------------|4-6--------4----------------| 
A|-----------------------|--------------------4-6-4-4-|
E|--4-1-2-5--5-4---4-2-4-|------4--4-----4--4---------|
                           Slow-ly com-ing in-to view._
 
 
 
               F#5
    Gtr.1
                                P.M.     P.M.
E|-----------------------|----------------------------| 
B|-----------------------|----------------------------| 
G|3----------------------|4---------------------------| 
D|4----------------------|4-4--------2--------1-2-1---| 
A|-----------------------|--------------------------4-|
E|--1-2-4-5--4-2---2-0-2-|------2--2-----2--2---------|
                            I?ve     ar  -  rived.
 
 
 
                                                                C#5
   Gtr.1
                               P.M.     P.M.
E|-----------------------|-------------------|----------------------------| 
B|-----------------------|-------------------|----------------------------| 
G|3----------------------|-------------------|4-----------------6-6-------| 
D|4----------------------|-4--------2--------|4-6-7-6-4---------6-6-------| 
A|--2--------------------|-------------------|----------6-7-6---4-4-------|
E|----5-4-5--4-2---2-0-2-|-----2--2-----2--2-|----------------7-----------|
                          Blind-ing sun-shine beam-ing through._
 
 
 
   Ab5                    Ab(#11) Ab           Ab5             Ab6
   Gtr.1
              P.M.   P.M.                                 P.M.    P.M.
E|-----------------------|-------------------|------------------------|
B|-----------------------|-------------------|------------------------| 
G|-8--------------8------|-7------5----------|-8--------------10------| 
D|-6----------6-6-6--6-6-|-6------6----------|-6----------6-6--6--6-6-| 
A|-----------------------|-------------------|------------------------| 
E|-----------------------|-------------------|------------------------|
                  There?s a house I?m drawn_to.           Fa-mil-iar
 
 
 
  Ab(#11) Ab5          F5                      F(#11) F
   Gtr.1
                                  P.M.   P.M.
E|-------------------|-----------------------|-------------------| 
B|-------------------|-----------------------|-------------------| 
G|-7------8----------|-5--------------5------|-4------2----------| 
D|-6------6----------|-3----------3-3-3--3-3-|-3------3----------| 
A|-------------------|-----------------------|-------------------| 
E|-------------------|-----------------------|-------------------|
  set-tings,noth-ing new.__And there?s a path-way lead-ing there_
 
 
 
   F5             F6       F(#11) F5           Ab5           
   Gtr.1
              P.M.   P.M.                                 P.M.   P.M.
E|-----------------------|-------------------|-----------------------|
B|-----------------------|-------------------|-----------------------| 
G|-5--------------7------|-4------5----------|-8--------------8------| 
D|-3----------3-3-3--3-3-|-3------3----------|-6----------6-6-6--6-6-| 
A|-----------------------|-------------------|-----------------------| 
E|-----------------------|-------------------|-----------------------|
                  with a haunt-ing chill_in the air.__     There?s a
 
 
 
  Ab(#11) Ab             Ab5             Ab6     Ab(#11) Ab5
   Gtr.1
                                    P.M.    P.M.
E|---------------------|------------------------|-------------------| 
B|---------------------|------------------------|-------------------| 
G|-7------5--------5-7-|-8--------------10------|-7------8----------| 
D|-6------6--------6---|-6----------6-6--6--6-6-|-6------6----------| 
A|---------------------|------------------------|-------------------| 
E|---------------------|------------------------|-------------------|
   room at the top_of the stairs._  Ev-?ry night_I?m drawn_up there._
 
 
 
   F5                      F(#11) F              F5             F6           
   Gtr.1
              P.M.   P.M.                                   P.M.   P.M.
E|-----------------------|---------------------|-----------------------|
B|-----------------------|---------------------|-----------------------| 
G|-5--------------5------|-4------2--------2-4-|-5--------------7------| 
D|-3----------3-3-3--3-3-|-3------3--------3---|-3----------3-3-3--3-3-| 
A|-----------------------|---------------------|-----------------------| 
E|-----------------------|---------------------|-----------------------|
              And there?s a girl in the mir-ror,            her face is
 
 
 
   F(#11) F5           Cb5   Cb(#11) Cb         Cb5   Cb(#11) Cb
   Gtr.1
                                          P.M.                     P.M.
E|-------------------|------------------------|------------------------| 
B|-------------------|-7---7-7--6----4--------|-7---7-7--6----4--------| 
G|-4------5----------|-4---4-4--4----4----4-4-|-4---4-4--4----4----4-4-| 
D|-3------3----------|------------------------|------------------------| 
A|-------------------|------------------------|------------------------| 
E|-------------------|------------------------|------------------------|
   get-ting clear-er.      Young child_ won?t__    you tell_ me
 
 
 
   Db5     Dbsus Db         Db5     Dbsus Db
   Gtr.1
                      P.M.
E|------------------------|----------------------| 
B|-9---9-9--7----6--------|-9---9-9--7----6-----| 
G|-6---6-6--6----6----6-6-|-6---6-6--6----6-----| 
D|------------------------|----------------------| 
A|------------------------|----------------------| 
E|------------------------|----------------------|
   why      I?m_   here.___
 
 
 
    G#5
    Gtr.1
                                P.M.     P.M.
E|-----------------------|----------------------------| 
B|-----------------------|----------------------------| 
G|3----------------------|4---------------------------| 
D|4----------------------|4-6--------4----------------| 
A|-----------------------|--------------------6-7-6-4-| 
E|--4-1-2-5--5-4---4-2-4-|------4--4-----4--4---------|
                            In      her_____ eyes,
 
 
 
 
    Gtr.1
                                P.M.     P.M.
E|-----------------------|----------------------------| 
B|-----------------------|----------------------------| 
G|3----------------------|4---------------------------| 
D|4----------------------|4-6--------4----------------| 
A|-----------------------|--------------------4-6-4-4-|
E|--4-1-2-5--5-4---4-2-4-|------4--4-----4--4---------|
                      I  sense a sto-ry nev-er told._
 
 
 
               F#5
    Gtr.1
                                P.M.     P.M.
E|-----------------------|----------------------------| 
B|-----------------------|----------------------------| 
G|3----------------------|4---------------------------| 
D|4----------------------|4-4--------2--------1-2-1---| 
A|-----------------------|--------------------------4-|
E|--1-2-4-5--4-2---2-0-2-|------2--2-----2--2---------|
                            Be-hind the_ dis ? guise,_
 
 
 
 
   Gtr.1
                               P.M.     P.M.
E|-----------------------|-------------------|------------------| 
B|-----------------------|-------------------|------------------| 
G|3----------------------|-------------------|2-----------------| 
D|4----------------------|-4--------2--------|4-6-7-6-4---------| 
A|--2--------------------|-------------------|----------6-7-6---|
E|----5-4-5--4-2---2-0-2-|-----2--2-----2--2-|----------------7-|
                   there?s some-thing tear-ing at_her soul._
 
 
 
    C#m                A                  E/G#                F#m
    Gtr.1
E|-------------------|------------------|------------------|------------------|  
B|--5----------------|-2----------------|-5----------------|------------------| 
G|4-6----------------|-2----------------|-4----------------|3-----------------| 
D|4-6----------------|-2----------------|-2----------------|4-----------------| 
A|--4----------------|-0----------------|------------------|--------------/6--| 
E|-------------------|------------------|-4----------------|--2---4---5-------|
    To-night_I?ve been search-ing for_it,a feel-ing that?s  deep in-side me.
 
 
 
    C#m                   A                    G#m
    Gtr.1
         P.M.
E|----------------------|--------5-----------|--------4-------------| 
B|--5--------5----------|-------------5------|-------------4--------| 
G|4-6--------6----------|-2------------------|-4--------------4-----| 
D|4-6--------6----------|-2------------------|-6-----------------6--| 
A|--4----4-4-4----------|-0------------------|-6--------------------| 
E|----------------------|--------------------|-4--------------------|
    To-night_I?ve been search-ing for_  the one that no-bod-y knows._
 
 
 
   F#m                    B       Bsus B
   Gtr.1
E|--------2-------------|---------0-------------| 
B|-------------2--------|-4------------4--------| 
G|-2--------------2-----|-4---------------4-----| 
D|-4-----------------4--|-4----4-------------4--| 
A|-4--------------------|-2---------------------| 
E|-2--------------------|-----------------------|
                          Try-ing to__ break_
 
 
 
   Asus2                    B5
   Gtr.1
E|------------------------|------------------------| 
B|----------0----------0--|----------0----0--------| 
G|-2-----2-------2--------|-------4----------4-----| 
D|-2---2------------2-----|-4---4---------------4--| 
A|-0----------------------|-2----------------------| 
E|------------------------|------------------------|
 | Gtr.2 (Acous. Gtr.)
E|------------------------|------------------------| 
B|----------0----------0--|----------0----0--------| 
G|-2-----2-------2--------|-------4----------4-----| 
D|-2---2------------2-----|-4---4---------------4--| 
A|-0----------------------|-2----------------------| 
E|------------------------|------------------------|
   free.         I   just  can?t help my-self.  I?m
 
 
 
   Asus2                    F#(4)
   Gtr.1
E|------------------------|------------------------| 
B|----------0-------------|----------0-------0-----| 
G|-2-----2----------------|---------------3--------| 
D|-2---2---------------4--|-------4-------------4--| 
A|-0----------------2-----|-----4------------------| 
E|---------------0--------|-2----------------------|
 | Gtr.2
E|------------------------|------------------------| 
B|----------0-------------|----------0-------0-----| 
G|-2-----2----------------|---------------3--------| 
D|-2---2---------------4--|-------4-------------4--| 
A|-0----------------2-----|-----4------------------| 
E|---------------0--------|-2----------------------|
   feel-ing like I?m go-ing out of my____ head.
 
 
 
   Asus2                    B5
   Gtr.1
E|------------------------|------------------------| 
B|----------0----------0--|----------0----0--------| 
G|-2-----2-------2--------|-------4----------4-----| 
D|-2---2------------2-----|-4---4---------------4--| 
A|-0----------------------|-2----------------------| 
E|------------------------|------------------------|
 | Gtr.2
E|------------------------|------------------------| 
B|----------0----------0--|----------0----0--------| 
G|-2-----2-------2--------|-------4----------4-----| 
D|-2---2------------2-----|-4---4---------------4--| 
A|-0----------------------|-2----------------------| 
E|------------------------|------------------------|
   Tears my heart in ? to  two,               I?m 
 
 
 
   Csus2                  D        Dsus   D
   Gtr.1
E|----------3-----------|----------3------2----| 
B|---------------3------|-3-----3---------3----| 
G|-5-----5--------------|-2---2----------------| 
D|-5---5----------------|-0--------------------| 
A|-3--------------------|----------------------| 
E|----------------------|----------------------|
 | Gtr.2
E|----------3-----------|----------3------2----| 
B|---------------3------|-3-----3---------3----| 
G|-5-----5--------------|-2---2----------------| 
D|-5---5----------------|-0--------------------| 
A|-3--------------------|----------------------| 
E|----------------------|----------------------|
   not the one__ the sleep ? er thought_he knew.
 
 
 
   E5
   Gtr.1
E|------------------|------------------|------------------| 
B|------------------|------------------|-5----------------| 
G|------------------|------------------|-4----------------| 
D|-2----------------|(2)---------------|-2----------------| 
A|-2----------------|(2)---------------|-2----------------| 
E|-0----------------|(0)---------------|-0----------------|
 | Gtr.2
E|------------------|------------------|------------------| 
B|------------------|------------------|-5----------------| 
G|------------------|------------------|-4----------------| 
D|-2----------------|(2)---------------|-2----------------| 
A|-2----------------|(2)---------------|-2----------------| 
E|-0----------------|(0)---------------|-0----------------|
 
 
 
 
 
   Gtr.3 (Elec. Gtr.)
   w/trem.bar  
            harm._ _                             ~~~~~~~             ~~~~
E|----------------------|---------------------------|------------------------|
B|----------------------|---------------------------|------------------------|
G|----------5--5--5-----|---------------------------|------------------------|
D|----------------------|---------------------------|------------------------|
A|----------------------|----5--7-----5^7---x-5--7--|(7)-5--7----------------|
E|-0----------------0--|(0)-------0------0---------|----------0--3--5----0--|
 | Gtr.4 (Elec. Gtr.)
 | w/trem.bar  
 |          harm._ _                             ~~~~~~~             ~~~~
E|----------------------|---------------------------|------------------------|
B|----------------------|---------------------------|------------------------|
G|----------5--5--5-----|---------------------------|------------------------|
D|----------------------|---------------------------|------------------------|
A|----------------------|----5--7-----5^7---x-5--7--|(7)-5--7----------------|
E|-0----------------0--|(0)-------0------0---------|----------0--3--5----0--|
 
 
 
 
 
   Gtr.3
                          ~~~~~~~           1  ~~~~
E|---------------------------|-------------------------| 
B|---------------------------|-------------------------| 
G|---------------------------|-------------------------| 
D|---------------------------|-------------------------| 
A|----5--7-----5^7---x-5--7--|(7)-5--7-----------------| 
E|(0)-------0------0---------|----------0--3b--r----0--|
 | Gtr.4
 |                        ~~~~~~~           1  ~~~~
E|---------------------------|-------------------------| 
B|---------------------------|-------------------------| 
G|---------------------------|-------------------------| 
D|---------------------------|-------------------------| 
A|----5--7-----5^7---x-5--7--|(7)-5--7-----------------| 
E|(0)-------0------0---------|----------0--3b--r----0--|
 
 
 
 
 
   Gtr.3
                          ~~~~~~~          P.M._ _ _ _
E|---------------------------|----------------------------| 
B|---------------------------|----------------------------| 
G|---------------------------|----------------------------| 
D|---------------------------|----------------------------| 
A|----5--7-----5^7---x-5--7--|(7)-5--7-----------5-6-7----| 
E|(0)-------0------0---------|----------0--5-6-7-------0--|
 | Gtr.4
 |                        ~~~~~~~          P.M._ _ _ _
E|---------------------------|----------------------------| 
B|---------------------------|----------------------------| 
G|---------------------------|----------------------------| 
D|---------------------------|----------------------------| 
A|----5--7-----5^7---x-5--7--|(7)-5--7-----------5-6-7----| 
E|(0)-------0------0---------|----------0--5-6-7-------0--|
 
 
 
 
   Gtr.3
                          ~~~~~~~                         harm._ _
E|---------------------------|-------------------------|--------------|  
B|---------------------------|-------------------------|--------------|
G|---------------------------|-------------------------|2-5--5--5-----|
D|---------------------------|-------------------------|4-------------|
A|----5--7-----5^7---x-5--7--|(7)-5--7-----------------|--------------|
E|(0)-------0------0---------|----------0--3--4--5--0--|-----------0--|
 | Gtr.4
 |                        ~~~~~~~                         harm._ _
E|---------------------------|-------------------------|--------------|  
B|---------------------------|-------------------------|--------------|
G|---------------------------|-------------------------|2-5--5--5-----|
D|---------------------------|-------------------------|4-------------|
A|----5--7-----5^7---x-5--7--|(7)-5--7-----------------|--------------|
E|(0)-------0------0---------|----------0--3--4--5--0--|-----------0--|
 
 
 
 
                                            G5 A5
   Gtr.3
                           ~~~~~~~           
E|----------------------------|------------------------| 
B|----------------------------|------------------------| 
G|4---------------------------|------------------------| 
D|4---------------------------|------------------------| 
A|-----5--7-----5^7---x-5--7--|(7)-5--7-----5--7-------| 
E|-(0)-------0------0---------|----------0--3--5----0--|
 | Gtr.4
 |                         ~~~~~~~           
E|----------------------------|------------------------| 
B|----------------------------|------------------------| 
G|4---------------------------|------------------------| 
D|4---------------------------|------------------------| 
A|-----5--7-----5^7---x-5--7--|(7)-5--7-----5--7-------| 
E|-(0)-------0------0---------|----------0--3--5----0--|
               Back on my feet_  a ? gain,_      eyes o 
 
 
 
   E5                                      G5 A5
   Gtr.3
                          ~~~~~~~           
E|---------------------------|------------------------| 
B|---------------------------|------------------------| 
G|---------------------------|------------------------| 
D|---------------------------|------------------------| 
A|----5--7-----5^7---x-5--7--|(7)-5--7-----5--7-------| 
E|(0)-------0------0---------|----------0--3--5----0--|
 | Gtr.4
 |                        ~~~~~~~           
E|---------------------------|------------------------| 
B|---------------------------|------------------------| 
G|---------------------------|------------------------| 
D|---------------------------|------------------------| 
A|----5--7-----5^7---x-5--7--|(7)-5--7-----5--7-------| 
E|(0)-------0------0---------|----------0--3--5----0--|
   - pen to the    real   world._
 
 
 
   E5                                      G5 A5
   Gtr.3
                          ~~~~~~~           
E|---------------------------|------------------------| 
B|---------------------------|------------------------| 
G|---------------------------|------------------------| 
D|---------------------------|------------------------| 
A|----5--7-----5^7---x-5--7--|(7)-5--7-----5--7-------| 
E|(0)-------0------0---------|----------0--3--5----0--|
 | Gtr.4
 |                        ~~~~~~~           
E|---------------------------|------------------------| 
B|---------------------------|------------------------| 
G|---------------------------|------------------------| 
D|---------------------------|------------------------| 
A|----5--7-----5^7---x-5--7--|(7)-5--7-----5--7-------| 
E|(0)-------0------0---------|----------0--3--5----0--|
            Me-trop-o-lis sur ? rounds me,_   the mir
 
 
 
   E5                                      G5 A5
   Gtr.3
                          ~~~~~~~           
E|---------------------------|-------------------------| 
B|---------------------------|-------------------------| 
G|---------------------------|---------------------12--| 
D|---------------------------|---------------------12--| 
A|----5--7-----5^7---x-5--7--|(7)-5--7-----5--7--------| 
E|(0)-------0------0---------|----------0--3--5--------|
 | Gtr.4
 |                        ~~~~~~~           
E|---------------------------|-------------------------| 
B|---------------------------|-------------------------| 
G|---------------------------|---------------------12--| 
D|---------------------------|---------------------12--| 
A|----5--7-----5^7---x-5--7--|(7)-5--7-----5--7--------| 
E|(0)-------0------0---------|----------0--3--5--------|
   - ror?s shat-tered the girl.__
 
 
 
   E5                                        G5 A5
   Gtr.3
                         ~~~~~~~           
E|-----------------------------|-------------------------| 
B|-----------------------------|-------------------------| 
G|(12)------------------------|---------------------12--| 
D|(12)------------------------|---------------------12--| 
A|------5--7-----5^7---x-5--7--|(7)-5--7-----5--7--------| 
E|------------0------0---------|----------0--3--5--------|
 | Gtr.4
 |                       ~~~~~~~           
E|-----------------------------|-------------------------| 
B|-----------------------------|-------------------------| 
G|(12)------------------------|---------------------12--| 
D|(12)------------------------|---------------------12--| 
A|------5--7-----5^7---x-5--7--|(7)-5--7-----5--7--------| 
E|------------0------0---------|----------0--3--5--------|
                Why is this oth ? er life__        haunt
 
 
 
   E5                                        G5 A5
   Gtr.3
                         ~~~~~~~           
E|-----------------------------|-------------------------| 
B|-----------------------------|-------------------------| 
G|(12)------------------------|---------------------12--| 
D|(12)------------------------|---------------------12--| 
A|------5--7-----5^7---x-5--7--|(7)-5--7-----5--7--------| 
E|------------0------0---------|----------0--3--5--------|
 | Gtr.4
 |                       ~~~~~~~           
E|-----------------------------|-------------------------| 
B|-----------------------------|-------------------------| 
G|(12)------------------------|---------------------12--| 
D|(12)------------------------|---------------------12--| 
A|------5--7-----5^7---x-5--7--|(7)-5--7-----5--7--------| 
E|------------0------0---------|----------0--3--5--------|
   - ing me ev ? ?ry ? day?__
 
 
 
   E5                                        G5 A5
   Gtr.3
                            ~~~~~~~           
E|-----------------------------|-------------------------| 
B|-----------------------------|-------------------------| 
G|(12)------------------------|---------------------12--| 
D|(12)------------------------|---------------------12--| 
A|------5--7-----5^7---x-5--7--|(7)-5--7-----5--7--------| 
E|------------0------0---------|----------0--3--5--------|
 | Gtr.4
 |                          ~~~~~~~           
E|-----------------------------|-------------------------| 
B|-----------------------------|-------------------------| 
G|(12)------------------------|---------------------12--| 
D|(12)-4--5-----4^5---x-4--5--|(5)-4--5-------------12--| 
A|-----------------------------|-------------5--7--------| 
E|------------0------0---------|----------0--3--5--------|
   I?d break through to the oth ? er side__       if on
 
 
 
   E5                                      
   Gtr.3
                            ~~~~~~~                   ~~~           
E|-----------------------------|-------------------------| 
B|-----------------------------|-------------------------| 
G|(12)------------------------|-------------------------| 
D|(12)------------------------|-------------------------| 
A|------5--7-----5^7---x-5--7--|(7)-5--7--------------4--| 
E|------------0------0---------|----------0--3--4--5-----|
 | Gtr.4
 |                          ~~~~~~~                   ~~~           
E|-----------------------------|-------------------------| 
B|-----------------------------|-------------------------| 
G|(12)------------------------|-------------------------| 
D|(12)-4--5-----4^5---x-4--5--|(5)-4--5-----------------| 
A|-----------------------------|----------------------4--| 
E|------------0------0---------|----------0--3--4--5-----|
   - ly I?d find_        the way.___
 
 
 
   C#5
   Gtr.3
  ~~~                   ~~~~~~~                    ~~~
E|-------------------------|--------------------------| 
B|-------------------------|--------------------------| 
G|-------------------------|--------------------------| 
D|-------------------2-----|--------------------------| 
A|(4)-------------2-----4--|(4)--------------------4--| 
E|----0--2--3--4-----------|----0--2--3--4--3^2-0-----|
 | Gtr.4
 |~~~                   ~~~~~~~                    ~~~
E|-------------------------|--------------------------| 
B|-------------------------|--------------------------| 
G|-------------------------|--------------------------| 
D|-------------------2-----|--------------------------| 
A|(4)-------------2-----4--|(4)--------------------4--| 
E|----0--2--3--4-----------|----0--2--3--4--3^2-0-----|
  Some-thing?s aw-f?lly fa-mil-iar,           the feel
 
 
 
 
   Gtr.3
  ~~~                   ~~~~~~~                    ~~~
E|-------------------------|--------------------------| 
B|-------------------------|--------------------------| 
G|-------------------------|--------------------------| 
D|-------------------2-----|-------------2------------| 
A|(4)-------------2-----4--|(4)-------------4^2----4--| 
E|----0--2--3--4-----------|----0--2--4---------4-----|
 | Gtr.4
 |~~~                   ~~~~~~~                    ~~~
E|-------------------------|--------------------------| 
B|-------------------------|--------------------------| 
G|-------------------------|--------------------------| 
D|-------------------2-----|-------------2------------| 
A|(4)-------------2-----4--|(4)-------------4^2----4--| 
E|----0--2--3--4-----------|----0--2--4---------4-----|
   - ing?s so hard_ to shake._
 
 
 
 
   Gtr.3
  ~~~                   ~~~~~~~                    ~~~
E|-------------------------|--------------------------| 
B|-------------------------|--------------------------| 
G|-------------------------|--------------------------| 
D|-------------------2-----|--------------------------| 
A|(4)-------------2-----4--|(4)--------------------4--| 
E|----0--2--3--4-----------|----0--2--3--4--3^2-0-----|
 | Gtr.4
 |~~~                   ~~~~~~~                    ~~~
E|-------------------------|--------------------------| 
B|-------------------------|--------------------------| 
G|-------------------------|--------------------------| 
D|-------------------2-----|--------------------------| 
A|(4)-------------2-----4--|(4)--------------------4--| 
E|----0--2--3--4-----------|----0--2--3--4--3^2-0-----|
  Could I have lived in that oth-er world,_ it?s a
 
 
 
 
   Gtr.3
  ~~~                   ~~~~~~~                   
E|-------------------------|------------------------| 
B|-------------------------|------------------------| 
G|-------------------------|7-----------------------| 
D|-------------------2-----|8------------/4---------| 
A|(4)-------------2-----4--|-(4)-------------6^4----| 
E|----0--2--3--4-----------|-----0--2--4---------7--|
 | Gtr.4
 |~~~                   ~~~~~~~                   
E|-------------------------|------------------------| 
B|-------------------------|------------------------| 
G|-------------------------|7-----------------------| 
D|-------------------2-----|8------------/4---------| 
A|(4)-------------2-----4--|-(4)-------------6^4----| 
E|----0--2--3--4-----------|-----0--2--4---------7--|
   link that I?m des-tined to make.___
 
 
 
    G#5
    Gtr.3
                                        ~~~~
E|--------------------------|-----------------------| 
B|--------------------------|-----------------------| 
G|4-------------------------|7----------------------| 
D|4------4--6-----4^6-------|8----------------------| 
A|--------------------------|-----4-/6--4-----------| 
E|--4----------4------4--7--|-(7)------------7--2^3-|
 |  Gtr.4
 |                                      ~~~~
E|--------------------------|-----------------------| 
B|--------------------------|-----------------------| 
G|4-------------------------|7----------------------| 
D|4------4--6-----4^6-------|8----------------------| 
A|--------------------------|-----4-/6--4-----------| 
E|--4----------4------4--7--|-(7)------------7--2^3-|
         Still search-ing but I__ don?t know_ what
 
 
 
 
    Gtr.3
E|--------------------------|---------------------------| 
B|--------------------------|---------------------------| 
G|4-------------------------|---------------------------| 
D|4------4--6-----4^6-------|---------------------------| 
A|--------------------------|----4-/6--4^^5^4-----------| 
E|--4----------4------4--7--|(7)---------------7--2--3--|
 |  Gtr.4
E|--------------------------|---------------------------| 
B|--------------------------|---------------------------| 
G|4-------------------------|---------------------------| 
D|4------4--6-----4^6-------|---------------------------| 
A|--------------------------|----4-/6--4^^5^4-----------| 
E|--4----------4------4--7--|(7)---------------7--2--3--|
    for._____________
 
 
 
 
    Gtr.3
                                        ~~~~
E|--------------------------|-----------------------| 
B|--------------------------|-----------------------| 
G|4-------------------------|7----------------------| 
D|4------4--6-----4^6-------|8----------------------| 
A|--------------------------|-----4--6--4-----------| 
E|--4----------4------4--7--|-(7)------------7--2^3-|
 |  Gtr.4
 |                                      ~~~~
E|--------------------------|-----------------------| 
B|--------------------------|-----------------------| 
G|4-------------------------|7----------------------| 
D|4------4--6-----4^6-------|8----------------------| 
A|--------------------------|-----4--6--4-----------| 
E|--4----------4------4--7--|-(7)------------7--2^3-|
         The miss-ing key to un ? lock my_ mind?s
 
 
 
 
    Gtr.3
E|--------------------------|------------------------| 
B|--------------------------|------------------------| 
G|4-------------------------|------------------------| 
D|4------4--6-----4^6-------|------------------------| 
A|--------------------------|----4-/6-------------2--| 
E|--4----------4------4--7--|(7)-------2----3--4-----|
 |  Gtr.4
E|--------------------------|------------------------| 
B|--------------------------|------------------------| 
G|4-------------------------|------------------------| 
D|4------4--6-----4^6-------|------------------------| 
A|--------------------------|----4-/6-------------2--| 
E|--4----------4------4--7--|(7)-------2----3--4-----|
    door._________________________________
 
 
 
   C#m                A                  E/G#
   Gtr.1
E|-4----------------|------------------|------------------| 
B|-5----------------|-2----------------|-5----------------| 
G|-6----------------|-2----------------|-4----------------| 
D|-6----------------|-2----------------|-2----------------| 
A|-4----------------|-0----------------|------------------| 
E|------------------|------------------|-4----------------|
 | Gtr.3
 |                                       ~~~~~~~~~~~~~~~~~
E|------------------|------------------|------------------| 
B|------------------|------------------|------------------| 
G|------------------|------------------|------------------| 
D|------------------|------------------|------------------| 
A|-4----------------|------------------|------------------| 
E|------------------|-5----------------|-4----------------|
 | Gtr.4
 |                                       ~~~~~~~~~~~~~~~~~
E|------------------|------------------|------------------| 
B|------------------|------------------|------------------| 
G|------------------|------------------|------------------| 
D|------------------|------------------|------------------| 
A|-4----------------|------------------|------------------| 
E|------------------|-5----------------|-4----------------|
 
 
 
 
   F#m                   D
   Gtr.1
E|--------2------------|--------------------| 
B|-------------2-------|--------3-----------| 
G|-2--------------2----|-2-----------2------| 
D|-4-------------------|-0------------------| 
A|-4-------------------|-0------------------| 
E|-2-------------------|--------------------|
        To-day_ I__ am  search-ing_ for_ it,
 
 
 
   A/C#                   Bm                 F#m
   Gtr.1
E|---------------------|------------------|---------2------------| 
B|---------------------|------------------|--------------2-------| 
G|---------------------|3-----------------|4-2--------------2----| 
D|-7--------7----------|4-----------------|4-4-------------------| 
A|-4----4-4------------|--2---4---5-------|--4-------------------| 
E|---------------------|---------------4--|--2-------------------|
        A feel-ing_that won?t go_ a-way.        To-day_ I__ am
 
 
 
   D                    C#m
   Gtr.1
E|--------------------|-------------------| 
B|--------3-----------|-------------------| 
G|-2-----------2------|-6------6----------| 
D|-0------------------|-------------------| 
A|-0------------------|-4-----------------| 
E|--------------------|-------------------|
  search-ing_ for_ the one that I_on-ly know,
 
 
 
   Bm                      E
   Gtr.1
E|-----------------------|---------0-----------| 
B|--------------0--------|--------------0------| 
G|-4-------4-------4-----|------1--------------| 
D|-4----4-------------4--|---------------------| 
A|-2---------------------|---------------------| 
E|-----------------------|-0-------------------|
                           try-ing to__ break_
 
 
 
   Asus2                    B5
   Gtr.1
E|------------------------|------------------------| 
B|----------0----------0--|----------0----0--------| 
G|-2-----2-------2--------|-------4----------4-----| 
D|-2---2------------2-----|-4---4---------------4--| 
A|-0----------------------|-2----------------------| 
E|------------------------|------------------------|
 | Gtr.2 
E|------------------------|------------------------| 
B|----------0----------0--|----------0----0--------| 
G|-2-----2-------2--------|-------4----------4-----| 
D|-2---2------------2-----|-4---4---------------4--| 
A|-0----------------------|-2----------------------| 
E|------------------------|------------------------|
   free.         I   just  can?t help my-self.  I?m
 
 
 
   Asus2                    F#(11)
   Gtr.1
E|------------------------|------------------------| 
B|----------0-------------|----------0-------0-----| 
G|-2-----2----------------|---------------3--------| 
D|-2---2---------------4--|-------4-------------4--| 
A|-0----------------2-----|-----4------------------| 
E|---------------0--------|-2----------------------|
 | Gtr.2
E|------------------------|------------------------| 
B|----------0-------------|----------0-------0-----| 
G|-2-----2----------------|---------------3--------| 
D|-2---2---------------4--|-------4-------------4--| 
A|-0----------------2-----|-----4------------------| 
E|---------------0--------|-2----------------------|
   feel-ing like I?m go-ing out of my____ head.
 
 
 
   Asus2                    B5
   Gtr.1
E|------------------------|------------------------| 
B|----------0----------0--|----------0----0--------| 
G|-2-----2-------2--------|-------4----------4-----| 
D|-2---2------------2-----|-4---4---------------4--| 
A|-0----------------------|-2----------------------| 
E|------------------------|------------------------|
 | Gtr.2
E|------------------------|------------------------| 
B|----------0----------0--|----------0----0--------| 
G|-2-----2-------2--------|-------4----------4-----| 
D|-2---2------------2-----|-4---4---------------4--| 
A|-0----------------------|-2----------------------| 
E|------------------------|------------------------|
   Tear my heart in ? to   two,               I?m 
 
 
 
   Csus2                  D        Dsus   D
   Gtr.1
E|----------3-----------|----------3------2----| 
B|---------------3------|-3-----3---------3----| 
G|-5-----5--------------|-2---2----------------| 
D|-5---5----------------|-0--------------------| 
A|-3--------------------|----------------------| 
E|----------------------|----------------------|
 | Gtr.2
E|----------3-----------|----------3------2----| 
B|---------------3------|-3-----3---------3----| 
G|-5-----5--------------|-2---2----------------| 
D|-5---5----------------|-0--------------------| 
A|-3--------------------|----------------------| 
E|----------------------|----------------------|
   not the one__ I thought_ I al - ways knew.
 
 
 
   Asus2                    B5
   Gtr.1
E|------------------------|------------------------| 
B|----------0----------0--|----------0----0--------| 
G|-2-----2-------2--------|-------4----------4-----| 
D|-2---2------------2-----|-4---4---------------4--| 
A|-0----------------------|-2----------------------| 
E|------------------------|------------------------|
 | Gtr.2 
E|------------------------|------------------------| 
B|----------0----------0--|----------0----0--------| 
G|-2-----2-------2--------|-------4----------4-----| 
D|-2---2------------2-----|-4---4---------------4--| 
A|-0----------------------|-2----------------------| 
E|------------------------|------------------------|
                 I   just  can?t help my-self.  I?m
 
 
 
   Asus2                    F#(4)
   Gtr.1
E|------------------------|------------------------| 
B|----------0-------------|----------0-------0-----| 
G|-2-----2----------------|---------------3--------| 
D|-2---2---------------4--|-------4-------------4--| 
A|-0----------------2-----|-----4------------------| 
E|---------------0--------|-2----------------------|
 | Gtr.2
E|------------------------|------------------------| 
B|----------0-------------|----------0-------0-----| 
G|-2-----2----------------|---------------3--------| 
D|-2---2---------------4--|-------4-------------4--| 
A|-0----------------2-----|-----4------------------| 
E|---------------0--------|-2----------------------|
   feel-ing like I?m go-ing out of my____ head.
 
 
 
   Asus2                    B5
   Gtr.1
E|------------------------|------------------------| 
B|----------0----------0--|----------0----0--------| 
G|-2-----2-------2--------|-------4----------4-----| 
D|-2---2------------2-----|-4---4---------------4--| 
A|-0----------------------|-2----------------------| 
E|------------------------|------------------------|
 | Gtr.2
E|------------------------|------------------------| 
B|----------0----------0--|----------0----0--------| 
G|-2-----2-------2--------|-------4----------4-----| 
D|-2---2------------2-----|-4---4---------------4--| 
A|-0----------------------|-2----------------------| 
E|------------------------|------------------------|
       Un ? can ? ny,  strange dè ? jà vu,   but
 
 
 
   Csus2                Cmaj7
   Gtr.1
E|--------3-----------|--------------------| 
B|-------------3------|--------------------| 
G|-5------------------|--------------------| 
D|-5------------------|-5------4------2----| 
A|-3------------------|--------------------| 
E|--------------------|--------------------|
 | Gtr.2
E|--------3-----------|--------------------| 
B|-------------3------|--------------------| 
G|-5------------------|--------------------| 
D|-5------------------|-5------4------2----| 
A|-3------------------|--------------------| 
E|--------------------|--------------------|
 | Gtr.5 (Elec. Gtr.)
E|--------3-----------|--------------------| 
B|-------------3------|--------------------| 
G|-5------------------|/4------2------0----| 
D|-5------------------|--------------------| 
A|-3------------------|--------------------| 
E|--------------------|--------------------|
   I      don?t__ mind,__________        I
 
 
 
   D       Dsus   D       D/F#                 G
   Gtr.1
E|---------3------2-----|--------------------|-3----------------|| 
B|-3----3---------------|---------------3----|-3----------------||
G|-2--------------------|--------------------|-0----------------|| 
D|-0--------------------|--------------------|-0----------------|| 
A|----------------------|--------------------|------------------|| 
E|-------------------0--|-2------2-----------|-3----------------||
 | Gtr.2
E|---------3------2-----|--------------------|-3----------------|| 
B|-3----3---------------|---------------3----|-3----------------||
G|-2--------------------|--------------------|-0----------------|| 
D|-0--------------------|--------------------|-0----------------|| 
A|----------------------|--------------------|------------------|| 
E|-------------------0--|-2------2-----------|-3----------------||
 | Gtr.5
E|---------3------2-----|--------5-----------|-3----------------|| 
B|-3----3---------------|---------------3----|-3----------------||
G|-2--------------------|--------------------|-0----------------|| 
D|-0--------------------|--------------------|-0----------------|| 
A|----------------------|--------------------|------------------|| 
E|-------------------0--|-2------------------|-3----------------||
   hope    to__ find____           the          truth.



_______________________________________________________
Contribuição: Paulo Henrique Gomes Marques([email protected])
	  

No existe una video leccione para esta canción

request
LosAcordes
Buscar
auto avanzar rasgueos aumentar disminuir cambiar color esconder acordes gráficos
losacordes exhibir acordes losacordes youTube video losacordes ocultar tabs losacordes ir hacia arriba losacordes