Dream Theater

Início > Dream Thea... > acordes

As I Am Tablatura

Dream Theater

Dificultad:ExpertoExperto

tuner correct add songbook print version text version salvar en e-mail
acordesukuleletablaturabaixobateriaarmónicaflautacavacopiano Guitar Pro
acordes

As I Am

	   
Andamento: 98 b.p.m                     00:16 
 
   Introdução em fade in 
   C---------------------|--------------------| 
   G---------------------|--------------------| 
 4 Eb--------------------|Baixo-com-distorção-| 
 4 Bb--------------------|(8 compassos)-------| 
   F---------------------|--------------------| 
   C---------------------|--------------------| 
 
   00:32                           4x 
      C5         C(b5) 
|-------------------|---------------| 
|-*--------5---5----|-(5)---------*-| 
|----------4---3----|-(3)-----------| 
|----2-----2---2----|-(2)-----------| 
|-*--2--------------|-------------*-| 
|----0--------------|---------------| 
 
    00:55 
    C5              C(b5)  Harmõnico:Feedback 
|------------------------|---------------------| 
|-*----------------------|---------------------| 
|------------------------|---------------------| 
|------------------------|---------------------| 
|-*--------7-----7-------|---------------------| 
|----0--------0-----6----|--(6)----------------| 
 
   
  C5            C(b5)  Feedback 
|-------------------|-----------------------------| 
|-------------------|---------------------------*-| 
|-------------------|-----------------------------| 
|-------------------|-----------------------------| 
|-----7-----7-------|---------------------------*-| 
|-0------0-----6----|-(6)b-bend-gradativo-de 1/4--| 
 
Andamento: 130 b.p.m 
 
  01:14 
     C5                           Eb5 
|--------------------|-----------------| 
|-*------------------|-----------------| 
|--------------------|-----------------| 
|--------------------|-----------------| 
|-*--2-m-m-m-7-m-7---|------7----7-5---| 
|----0-0-0-0---0---6-|-(6)----5----3---| 
 
         2 (Repetir os ultimos 2 compassos) 
|--------|--/------| 
|-----*--|-/-----*-| 
|--------|/--------| 
|-------/|---------| 
|------/-|---*---*-| 
|-----/--|---------| 
 
    
    01:29 
    C5 
|-------------------------|-----------------------| 
|-*-----------------------|-----------------------| 
|-------------------------|-----------------------| 
|-----mute.............---|-----------------------| 
|-*-2-2-2-2-8-7-5-8-7-5-8-|-7-2-2-2-8-7-5-8-7-5-7-| 
|---0-0-0-0---------------|---0-0-0---------------| 
 
_______________________________________________________ 
Contribuição: Rodrigo Fernandes dos Santos([email protected]) 
	  

No existe una video leccione para esta canción

request
Aumentar uno tonoAumentar uno tono
Aumentar uno semi-tonoAumentar uno semi-tono
Disminuir uno semi-tonoDisminuir uno semi-tono
Disminuir uno tonoDisminuir uno semi-tono
LosAcordes
Buscar
auto avanzar rasgueos aumentar disminuir cambiar color esconder acordes gráficos
losacordes exhibir acordes losacordes youTube video losacordes ocultar tabs losacordes ir hacia arriba losacordes