Dragonforce

Início > Dragonforc... > acordes

The Last Journey Home Tablatura

Dragonforce

Dificultad:Ningún gradoNingún grado

LINEKERS

tuner correct add songbook print version text version salvar en e-mail
acordesukuleletablaturabajobateríaarmónicaflautacavacopiano Guitar Pro
acordes

The Last Journey Home

	  E   E  H.              H.           E  E     E   E  H. 
E|----------------------|---------------------|----------------------| 
B|----------------------|---------------------|----------------------| 
G|--6-------------------|---------------------|--6-------------------| 
D|--6-------------------|---------------4--4--|--6-------------------| 
A|--4-------------------|---------------2--2--|--4-------------------| 
E|----------------------|---------------------|----------------------| 

       B5    E5   B5      Db5                                   B5 
       PM PM              PM  PM 
  Q    E  E  Q    Q       E   E  E  Q.     Q       H.           Q 
-----------------------|------------------------|--------------------| 
-----------------------|------------------------|--------------------| 
-------------9---------|---------6---------6----|--L------------4----| 
-------4--4--9----9----|--6---6--6---------6----|--L------------4----| 
-------2--2--7----9----|--4---4--4---------4----|--L------------2----| 
------------------7----|------------------------|--------------------| 

  A5                         B5                         Db5 
  PM PM PM PM PM PM PM PM    PM PM PM PM PM PM PM PM 
  E  E  E  E  E  E  E  E     E  E  E  E  E  E  E  E     E   E  H. 
--------------------------|--------------------------|----------------------| 
--------------------------|--------------------------|----------------------| 
--------------------------|--------------------------|--6-------------------| 
--2--2--2--2--2--2--2--2--|--4--4--4--4--4--4--4--4--|--6-------------------| 
--0--0--0--0--0--0--0--0--|--2--2--2--2--2--2--2--2--|--4-------------------| 
--------------------------|--------------------------|----------------------| 

                         PM PM PM PM    PM PM PM PM    PM PM 
  W                   E  S  S  S  S  E  S  S  S  S  E  S  S 
-------------------|-----------------------------------------| 
-------------------|-----------------------------------------| 
-------------------|-----------------------------------------| 
-------------------|--6--------------6--------------6--------| 
-------------------|--4--4--4--4--4--4--4--4--4--4--4--4--4--| 
-------------------|-----------------------------------------| 

                                            A5 
     PM PM PM PM    PM PM PM PM    PM PM 
  E  S  S  S  S  E  S  S  S  S  E  S  S     W 
-----------------------------------------|-------------------| 
-----------------------------------------|-------------------| 
-----------------------------------------|--2----------------| 
--6--------------6--------------6--------|--2----------------| 
--4--4--4--4--4--4--4--4--4--4--4--4--4--|--0----------------| 
-----------------------------------------|-------------------| 

  Db5 
      PM PM PM PM    PM PM PM PM    PM PM 
  E   S  S  S  S  E  S  S  S  S  E  S  S 
------------------------------------------| 
------------------------------------------| 
------------------------------------------| 
--6---------------6--------------6--------| 
--4---4--4--4--4--4--4--4--4--4--4--4--4--| 
------------------------------------------| 

     PM PM PM PM    PM PM PM PM    PM PM 
  E  S  S  S  S  E  S  S  S  S  E  S  S 
-----------------------------------------| 
-----------------------------------------| 
-----------------------------------------| 
--6--------------6--------------6--------| 
--4--4--4--4--4--4--4--4--4--4--4--4--4--| 
-----------------------------------------| 

     PM PM PM PM    PM PM PM PM    PM PM 
  E  S  S  S  S  E  S  S  S  S  E  S  S 
-----------------------------------------| 
-----------------------------------------| 
-----------------------------------------| 
--6--------------6--------------6--------| 
--4--4--4--4--4--4--4--4--4--4--4--4--4--| 
-----------------------------------------| 

                                            A5 
     PM PM PM PM    PM PM PM PM    PM PM 
  E  S  S  S  S  E  S  S  S  S  E  S  S     W 
-----------------------------------------|-------------------| 
-----------------------------------------|-------------------| 
-----------------------------------------|--2----------------| 
--6--------------6--------------6--------|--2----------------| 
--4--4--4--4--4--4--4--4--4--4--4--4--4--|--0----------------| 
-----------------------------------------|-------------------| 

  B5 
     PM PM PM PM    PM PM PM PM PM PM PM PM 
  E  S  S  S  S  E  S  S  S  S  S  S  S  S 
--------------------------------------------| 
--------------------------------------------| 
--------------------------------------------| 
--4--------------4--------------------------| 
--2--2--2--2--2--2--2--2--2--2--2--2--2--2--| 
--------------------------------------------| 

  PM PM    PM PM PM PM    PM PM    PM PM 
  S  S  E  S  S  S  S  E  S  S  E  S  S 
-----------------------------------------| 
-----------------------------------------| 
-----------------------------------------| 
--------4--------------4--------4--------| 
--2--2--2--2--2--2--2--2--2--2--2--2--2--| 
-----------------------------------------| 

  Db5 
      PM PM PM PM    PM PM PM PM    PM PM 
  E   S  S  S  S  E  S  S  S  S  E  S  S 
------------------------------------------| 
------------------------------------------| 
------------------------------------------| 
--6---------------6--------------6--------| 
--4---4--4--4--4--4--4--4--4--4--4--4--4--| 
------------------------------------------| 

     PM PM PM PM    PM PM PM PM    PM PM 
  E  S  S  S  S  E  S  S  S  S  E  S  S 
-----------------------------------------| 
-----------------------------------------| 
-----------------------------------------| 
--6--------------6--------------6--------| 
--4--4--4--4--4--4--4--4--4--4--4--4--4--| 
-----------------------------------------| 

  B5 
     PM PM PM PM    PM PM PM PM PM PM PM PM 
  E  S  S  S  S  E  S  S  S  S  S  S  S  S 
--------------------------------------------| 
--------------------------------------------| 
--------------------------------------------| 
--4--------------4--------------------------| 
--2--2--2--2--2--2--2--2--2--2--2--2--2--2--| 
--------------------------------------------| 

  PM PM    PM PM PM PM    PM PM    PM PM 
  S  S  E  S  S  S  S  E  S  S  E  S  S 
-----------------------------------------| 
-----------------------------------------| 
-----------------------------------------| 
--------4--------------4--------4--------| 
--2--2--2--2--2--2--2--2--2--2--2--2--2--| 
-----------------------------------------| 

  Db5 
      PM PM PM PM PM PM PM PM PM PM PM PM PM PM 
  E   S  S  S  S  S  S  S  S  S  S  S  S  S  S 
------------------------------------------------| 
------------------------------------------------| 
------------------------------------------------| 
--6---------------------------------------------| 
--4---4--4--4--4--4--4--4--4--4--4--4--4--4--4--| 
------------------------------------------------| 

        B5    Db5    Ab5    A5       B5    Db5    A5    Db5 
  PM PM 
   S  S  E  E  E   E  E   E  E     E  E  E  E   E  E  E  E 
-------------------------------|----------------------------| 
-------------------------------|----------------------------| 
--------4-----6-------------2--|-----4-----6------2-----6---| 
--------4-----6------6------2--|-----4-----6------2-----6---| 
--4--4--2-----4------6------0--|-----2-----4------0-----4---| 
---------------------4---------|----------------------------| 

  B5                                                   Db5 
       PM PM PM PM PM PM    PM PM PM PM PM PM PM PM         PM PM PM PM PM PM 
   Q    E  E  E  E  E  E     E  E  E  E  E  E  E  E     Q    E  E  E  E  E  E 
------------------------|--------------------------|------------------------| 
------------------------|--------------------------|------------------------| 
-4----------------------|--------------------------|--6---------------------| 
-4----------------------|--------------------------|--6---------------------| 
-2----2--2--2--2--2--2--|--2--2--2--2--2--2--2--2--|--4----4--4--4--4--4--4-| 
------------------------|--------------------------|------------------------| 

                             B5 
  PM PM PM PM PM PM PM PM         PM PM PM PM PM PM    PM PM PM PM PM PM PM PM 
   E  E  E  E  E  E  E  E     Q    E  E  E  E  E  E     E  E  E  E  E  E  E  E 
-------------------------|------------------------|-------------------------| 
-------------------------|------------------------|-------------------------| 
-------------------------|-4----------------------|-------------------------| 
-------------------------|-4----------------------|-------------------------| 
-4--4--4--4--4--4--4--4--|-2----2--2--2--2--2--2--|--2--2--2--2--2--2--2--2-| 
--------------------------|-------------------------|------------------| 

  Db5 
       PM PM PM PM PM PM    PM PM PM PM PM PM PM PM PM PM PM PM PM 
   Q    E  E  E  E  E  E     S  S  S  S  S  S  S  S  E  E  S  S  E 
-------------------------|-----------------------------------------| 
-------------------------|-----------------------------------------| 
--6----------------------|-----------------------------------------| 
--6----------------------|-----------------------------------------| 
--4----4--4--4--4--4--4--|--4--4--4--4--4--4--4--4--4--4--4--2--0--| 
-------------------------|-----------------------------------------| 

  Gb5                        Db5                 Gb5 
  PM   PM   PM                                   PM   PM   PM 
  |----3----|                                    |----3----| 
  Q    Q    Q    H           W                   Q    Q    Q    H 
--------------------------|-------------------|--------------------------| 
--------------------------|-------------------|--------------------------| 
--------------------------|--6----------------|--------------------------| 
-----------------4--------|--6----------------|-----------------4--------| 
--4----4----4----4--------|--4----------------|--4----4----4----4--------| 
--2----2----2----2--------|-------------------|--2----2----2----2--------| 

  Db5                           Gb5 
                     T              PM PM PM PM    PM PM PM PM    PM PM 
  H        E  S S  S S  S  S    E   S  S  S  S  E  S  S  S  S  E  S  S 
-----------------------------|------------------------------------------| 
-----------------------------|------------------------------------------| 
--6--------L-----------------|------------------------------------------| 
--6--------L-----------------|------------------------------------------| 
--4--------L----2h-4-7p-4p-2-|--4---------------4--------------4--------| 
--------------4--------------|--2---2--2--2--2--2--2--2--2--2--2--2--2--| 

  Db5                 B5 
  W                   W                   W 
-------------------|-------------------|-------------------| 
-------------------|-------------------|-------------------| 
--6----------------|--4----------------|--L----------------| 
--6----------------|--4----------------|--L----------------| 
--4----------------|--2----------------|--L----------------| 
-------------------|-------------------|-------------------| 

  Gb5                        Db5 
  PM   PM   PM                   PM PM PM PM    PM PM PM PM    PM PM 
  |----3----| 
  Q    Q    Q    H           E   S  S  S  S  E  S  S  S  S  E  S  S 
--------------------------|------------------------------------------| 
--------------------------|------------------------------------------| 
--------------------------|------------------------------------------| 
-----------------4--------|--6---------------6--------------6--------| 
--4----4----4----4--------|--4---4--4--4--4--4--4--4--4--4--4--4--4--| 
--2----2----2----2--------|------------------------------------------| 

  Gb5                        Db5 
  PM   PM   PM                   PM PM PM PM    PM PM PM PM    PM PM 
  |----3----| 
  Q    Q    Q    H           E   S  S  S  S  E  S  S  S  S  E  S  S 
--------------------------|------------------------------------------| 
--------------------------|------------------------------------------| 
--------------------------|------------------------------------------| 
-----------------4--------|--6---------------6--------------6--------| 
--4----4----4----4--------|--4---4--4--4--4--4--4--4--4--4--4--4--4--| 
--2----2----2----2--------|------------------------------------------| 

  Gb5                 E5                  Ab5 
  W                   W                   W 
-------------------|-------------------|-------------------| 
-------------------|-------------------|-------------------| 
-------------------|-------------------|-------------------| 
--4----------------|--2----------------|--6----------------| 
--4----------------|--2----------------|--6----------------| 
--2----------------|--0----------------|--4----------------| 

       PM PM PM PM PM PM 
  Q    E  E  E  E  E  E     W                    W 
-------------------------|--------------------|-------------------| 
-------------------------|--------------------|-------------------| 
-------------------------|--------------------|-------------------| 
--6----------------------|--6~----------------|--L----------------| 
--6----------------------|--------------------|-------------------| 
--4----4--4--4--4--4--4--|--------------------|-------------------| 

 Dbm                         A7M 
   E   E  E  E  E  E  E  E     E   E  E  E  E  E  E  E 
---------------4-----------|---------------4-----------| 
------------5-----5--------|------------5-----5--------| 
---------6-----------6-----|---------2-----------2-----| 
------6-----------------6--|------2-----------------2--| 
--4------------------------|--0------------------------| 
---------------------------|---------------------------| 

  Dbm 
   E   E  E  E  E  E  E  E     E          E  E  E  E  E  E  E 
---------------4-----------|----------------------4-----------| 
------------5-----5--------|-------------------5-----5--------| 
---------6-----------6-----|----------------4-----------4-----| 
------6-----------------6--|-------------4-----------------4--| 
--4------------------------|--2-------------------------------| 
---------------------------|----------------------------------| 

  Dbm                         A7M 
   E   E  E  E  E  E  E  E     E   E  E  E  E  E  E  E 
---------------4-----------|---------------4-----------| 
------------5-----5--------|------------5-----5--------| 
---------6-----------6-----|---------2-----------2-----| 
------6-----------------6--|------2-----------------2--| 
--4------------------------|--0------------------------| 
---------------------------|---------------------------| 

  Dbm 
   E   E  E  E  E  E  E  E     E          E  E  E  E  E  E  E 
---------------4-----------|----------------------4-----------| 
------------5-----5--------|-------------------5-----5--------| 
---------6-----------6-----|----------------4-----------4-----| 
------6-----------------6--|-------------4-----------------4--| 
--4------------------------|--2-------------------------------| 
---------------------------|----------------------------------| 

  Dbm                         A7M 
   E   E  E  E  E  E  E  E     E   E  E  E  E  E  E  E 
---------------4-----------|---------------4-----------| 
------------5-----5--------|------------5-----5--------| 
---------6-----------6-----|---------2-----------2-----| 
------6-----------------6--|------2-----------------2--| 
--4------------------------|--0------------------------| 
---------------------------|---------------------------| 

  Dbm 
   E   E  E  E  E  E  E  E     E          E  E  E  E  E  E  E 
---------------4-----------|----------------------4-----------| 
------------5-----5--------|-------------------5-----5--------| 
---------6-----------6-----|----------------4-----------4-----| 
------6-----------------6--|-------------4-----------------4--| 
--4------------------------|--2-------------------------------| 
---------------------------|----------------------------------| 

  Dbm                         A7M 
   E   E  E  E  E  E  E  E     E   E  E  E  E  E  E  E 
---------------4-----------|---------------4-----------| 
------------5-----5--------|------------5-----5--------| 
---------6-----------6-----|---------2-----------2-----| 
------6-----------------6--|------2-----------------2--| 
--4------------------------|--0------------------------| 
---------------------------|---------------------------| 

  B5 
   E  E  E  E  E  E  E  E     E  E  E  E  E  E  E  E 
--------------------------|--------------------------|---|| 
--------------------------|--------------------------|---|| 
--------4--------4--------|--------4--------4--------|---|| 
-----4--------4--------4--|-----4--------4--------4--|---|| 
--2--------2--------2-----|--2--------2--------2-----|---|| 
--------------------------|--------------------------|---|| 

  A5 
     PM PM PM PM    PM PM PM PM    PM PM 
  E  S  S  S  S  E  S  S  S  S  E  S  S 
-----------------------------------------| 
-----------------------------------------| 
--9--------------9--------------9--------| 
--7--7--7--7--7--7--7--7--7--7--7--7--7--| 
-----------------------------------------| 
-----------------------------------------| 

     PM PM PM PM    PM PM PM PM    PM PM 
  E  S  S  S  S  E  S  S  S  S  E  S  S 
-----------------------------------------| 
-----------------------------------------| 
--9--------------9--------------9--------| 
--7--7--7--7--7--7--7--7--7--7--7--7--7--| 
-----------------------------------------| 
-----------------------------------------| 

     PM PM PM PM    PM PM PM PM    PM PM       PM PM PM PM 
  E  S  S  S  S  E  S  S  S  S  E  S  S     E  S  S  S  S  E  H 
-----------------------------------------|-----------------------------|| 
-----------------------------------------|-----------------------------|| 
--9--------------9--------------9--------|--9--------------9-----------|| 
--7--7--7--7--7--7--7--7--7--7--7--7--7--|--7--7--7--7--7--7-----------|| 
-----------------------------------------|-----------------------------|| 
-----------------------------------------|-----------------------------|| 

     PM PM PM PM    PM PM PM PM    PM PM 
  E  S  S  S  S  E  S  S  S  S  E  S  S 
-----------------------------------------| 
-----------------------------------------| 
--6--------------6--------------6--------| 
--6--------------6--------------6--------| 
--4--4--4--4--4--4--4--4--4--4--4--4--4--| 
-----------------------------------------| 

     PM PM PM PM    PM PM PM PM    PM PM 
  E  S  S  S  S  E  S  S  S  S  E  S  S     W 
-----------------------------------------|-------------------| 
-----------------------------------------|-------------------| 
--6--------------6--------------6--------|--2----------------| 
--6--------------6--------------6--------|--2----------------| 
--4--4--4--4--4--4--4--4--4--4--4--4--4--|--0----------------| 
-----------------------------------------|-------------------| 

                         PM PM PM PM    PM PM PM PM    PM PM 
  W                   E  S  S  S  S  E  S  S  S  S  E  S  S 
-------------------|-----------------------------------------| 
-------------------|-----------------------------------------| 
--4----------------|--6--------------6--------------6--------| 
--4----------------|--6--------------6--------------6--------| 
--2----------------|--4--4--4--4--4--4--4--4--4--4--4--4--4--| 
-------------------|-----------------------------------------| 

     PM PM PM PM    PM PM PM PM    PM PM 
  E  S  S  S  S  E  S  S  S  S  E  S  S     W 
-----------------------------------------|-------------------| 
-----------------------------------------|-------------------| 
--6--------------6--------------6--------|--2----------------| 
--6--------------6--------------6--------|--2----------------| 
--4--4--4--4--4--4--4--4--4--4--4--4--4--|--0----------------| 
-----------------------------------------|-------------------| 

                         PM PM PM PM    PM PM PM PM    PM PM 
  W                   E  S  S  S  S  E  S  S  S  S  E  S  S 
-------------------|-----------------------------------------| 
-------------------|-----------------------------------------| 
--4----------------|--6--------------6--------------6--------| 
--4----------------|--6--------------6--------------6--------| 
--2----------------|--4--4--4--4--4--4--4--4--4--4--4--4--4--| 
-------------------|-----------------------------------------| 

     PM PM PM PM    PM PM PM PM    PM PM 
  E  S  S  S  S  E  S  S  S  S  E  S  S     W 
-----------------------------------------|-------------------| 
-----------------------------------------|-------------------| 
--6--------------6--------------6--------|--2----------------| 
--6--------------6--------------6--------|--2----------------| 
--4--4--4--4--4--4--4--4--4--4--4--4--4--|--0----------------| 
-----------------------------------------|-------------------| 

                         PM PM PM PM    PM PM PM PM    PM PM 
  W                   E  S  S  S  S  E  S  S  S  S  E  S  S 
-------------------|-----------------------------------------| 
-------------------|-----------------------------------------| 
--4----------------|--6--------------6--------------6--------| 
--4----------------|--6--------------6--------------6--------| 
--2----------------|--4--4--4--4--4--4--4--4--4--4--4--4--4--| 
-------------------|-----------------------------------------| 

     PM PM PM PM    PM PM PM PM    PM PM 
  E  S  S  S  S  E  S  S  S  S  E  S  S     W 
-----------------------------------------|-------------------| 
-----------------------------------------|-------------------| 
--6--------------6--------------6--------|--2----------------| 
--6--------------6--------------6--------|--2----------------| 
--4--4--4--4--4--4--4--4--4--4--4--4--4--|--0----------------| 
-----------------------------------------|-------------------| 

                         PM PM PM PM    PM PM PM PM    PM PM 
  W                   E  S  S  S  S  E  S  S  S  S  E  S  S 
-------------------|-----------------------------------------| 
-------------------|-----------------------------------------| 
--4----------------|--6--------------6--------------6--------| 
--4----------------|--6--------------6--------------6--------| 
--2----------------|--4--4--4--4--4--4--4--4--4--4--4--4--4--| 
-------------------|-----------------------------------------| 
-------------------|-----------------------------------------| 

  PM PM    PM PM       PM PM            PM PM PM PM    PM PM PM PM    PM PM 
  S  S  E  S  S  E  E  S  S  Q       E  S  S  S  S  E  S  S  S  S  E  S  S 
----------------------------------|-----------------------------------------| 
----------------------------------|-----------------------------------------| 
--------6--------6--L--------6----|--6--------------6--------------6--------| 
--------6--------6--L--------6----|--6--------------6--------------6--------| 
--4--4--4--4--4--4--L--4--4--4----|--4--4--4--4--4--4--4--4--4--4--4--4--4--| 
----------------------------------|-----------------------------------------| 
----------------------------------|-----------------------------------------| 

  PM PM    PM PM PM PM PM   PM   PM 
                       |----3----| 
  S  S  E  S  S  S  S  Q    Q    Q       W                   W 
--------------------------------------|-------------------|----------------| 
--------------------------------------|-------------------|----------------| 
--------6-----------------------------|--6----------------|--L-------------| 
--------6--------------4----4----4----|--6----------------|--L-------------| 
--4--4--4--4--4--4--4--2----2----2----|--4----------------|--L-------------| 
--------------------------------------|-------------------|----------------| 

  Q.      E  Q     Q        H.            E   E      Q.      E  Q     Q 
-------------------------|------------------------|-------------------------| 
-------------------------|------------------------|-------------------------| 
--13------11--L----13----|------------------------|----------11--L----13----| 
-------------------------|--11----------------11--|--14---------------------| 
-------------------------|----------------14------|-------------------------| 
-------------------------|------------------------|-------------------------| 

   S   S   S  S H.               Q.      E  Q     Q 
-----------------------------|-------------------------| 
-----------------------------|-------------------------| 
--11h-13p-11-----------------|--13------11--L----13----| 
-------------11-L------------|-------------------------| 
-----------------------------|-------------------------| 
-----------------------------|-------------------------| 

                 PM  PM                                    SH 
   H.            E   E      Q.      E  Q     Q             W 
------------------------|-------------------------|-------------------------| 
------------------------|-------------------------|-------------------------| 
------------------------|-------------------------|-------------------------| 
--11----------------11--|--14------13--L----------|-------------------------| 
----------------14------|-------------------14----|--14g<>16----------------| 
------------------------|-------------------------|-------------------------| 

                                           PM  PM 
   Q.      E  Q     Q        H.            E   E      Q.      E  Q     Q 
-------------------------|------------------------|-------------------------| 
-------------------------|------------------------|-------------------------| 
--13------11--L----13----|------------------------|----------11--L----13----| 
-------------------------|--11----------------11--|--14---------------------| 
-------------------------|----------------14------|-------------------------| 
-------------------------|------------------------|-------------------------| 

   S   S   S  S H.               Q.      E  Q     Q 
-----------------------------|-------------------------| 
-----------------------------|-------------------------| 
--11h-13p-11-----------------|--13------11--L----13----| 
-------------11-L------------|-------------------------| 
-----------------------------|-------------------------| 
-----------------------------|-------------------------| 

                 PM  PM                                 SH 
   H.            E   E      Q.      E  Q     Q          Q    Q     H 
------------------------|-------------------------|-------------------------| 
------------------------|-------------------------|-------------------------| 
------------------------|-------------------------|-------------------------| 
--11----------------11--|--14------13--L----------|--<>11----L\-------------| 
----------------14------|-------------------14----|-------------------------| 
------------------------|-------------------------|-------------------------| 

   E  E  E 
-------------------|----------------------|----------------------------| 
-------------------|----------------------|----------------------------| 
-------------------|--2-------------------|--4h--6-----4h--6-----------| 
-------------------|--2------6--L----2----|--4h--6-----4h--6-----------| 
-------------------|--0------6--L----2----|---------4---------4--4--4--| 
-------------------|---------4--L----0----|----------------------------| 
-------------------|----------------------|----------------------------| 

  PM PM PM PM PM PM PM PM           PM        PM PM PM 
   E  E  E  E  E  E  E  E     E   E  E  E   E  E  E  E 
--------------------------|----------------------------| 
--------------------------|----------------------------| 
--------------------------|--4h--6-----4h--6-----------| 
--------------------------|--4h--6-----4h--6-----------| 
--4--4--4--4--4--4--4--4--|---------4---------4--4--4--| 
--------------------------|----------------------------| 
--------------------------|----------------------------| 

  PM PM    PM    PM    PM           PM        PM PM PM 
   E  E  E  E  E  E  E  E     E   E  E  E   E  E  E  E 
--------------------------|----------------------------| 
--------7-----5-----------|----------------------------| 
--------6-----4-----4-----|--4h--6-----4h--6-----------| 
--------------------4-----|--4h--6-----4h--6-----------| 
--4--4-----4-----4-----4--|---------4---------4--4--4--| 
--------------------------|----------------------------| 
--------------------------|----------------------------| 

  PM PM PM PM PM PM PM PM PM PM           PM        PM PM PM 
   E  E  S  S  E  E  E  S  S  E     E   E  E  E   E  E  E  E 
--------------------------------|----------------------------| 
--------------------------------|----------------------------| 
--------------------------------|--4h--6-----4h--6-----------| 
--------------------------------|--4h--6-----4h--6-----------| 
--4--4--4--4--4--4--4--4--4--4--|---------4---------4--4--4--| 
--------------------------------|----------------------------| 
--------------------------------|----------------------------| 

  PM PM PM PM PM PM PM PM 
  E  E  E  E  E  E  E  E     W                   W 
--------------------------|-------------------|-------------------| 
--------------------------|-------------------|-------------------| 
--4-----------------------|-------------------|-------------------| 
-----7--6--4--7--6--4-----|-------------------|-------------------| 
-----------------------7--|--4----------------|--L----------------| 
--------------------------|--4----------------|--L----------------| 
--------------------------|--2----------------|--L----------------| 

-----------|--------------------|-------------------|-------------------| 
-----------|--14----------------|--L----------------|--L----------------| 
-----------|--------------------|-------------------|-------------------| 
-----------|--------------------|-------------------|-------------------| 
-----------|--------------------|-------------------|-------------------| 
-----------|--------------------|-------------------|-------------------| 

   \1/ 
    W                   W                   H.            E    E 
--14----------------|--L----------------|--L------------14h--16--| 
--------------------|-------------------|------------------------| 
--------------------|-------------------|------------------------| 
--------------------|-------------------|------------------------| 
--------------------|-------------------|------------------------| 
--------------------|-------------------|------------------------| 

     W                   W 
--<>16----------------|--L----------------| 
----------------------|-------------------| 
----------------------|-------------------| 
----------------------|-------------------| 
----------------------|-------------------| 
----------------------|-------------------| 

   ***Play note one octave lower and set whammy pedal 
   \1/ 
   W                                                    W 
--21-------------------------------------------------|--L----------------| 
-----------------------------------------------------|-------------------| 
-----------------------------------------------------|-------------------| 
-----------------------------------------------------|-------------------| 
-----------------------------------------------------|-------------------| 
-----------------------------------------------------|-------------------| 

                                    to two octaves above 
                                    \1/                  \1/ 
   W                   H.            E                    E 
--L----------------|--L------------21-------------------19--| 
-------------------|----------------------------------------| 
-------------------|----------------------------------------| 
-------------------|----------------------------------------| 
-------------------|----------------------------------------| 
-------------------|----------------------------------------| 

   \1/ \1/ \1/   \1/                       \1/ \1/ 
    E   E   Q     H           H.            E   E 
--21--24--21-----L--------|--L------------21--19--| 
--------------------------|-----------------------| 
--------------------------|-----------------------| 
--------------------------|-----------------------| 
--------------------------|-----------------------| 
--------------------------|-----------------------| 

   \1/ \1/ \1/        \1/ \1/    \1/ 
   E   E   Q    Q     E   E      W 
--21--19---------------------|--------------------| 
----------21----L----19--21--|--------------------| 
-----------------------------|--18----------------| 
-----------------------------|--------------------| 
-----------------------------|--------------------| 
-----------------------------|--------------------| 

   PM  PM  PM  PM  PM  PM  PM  PM     PM  PM  PM  PM  PM  PM  PM  PM 
    E   E   E   E   E   E   E   E      E   E   E   E   E   E   E   E 
----------------------------------|----------------------------------| 
----------------------------------|----------------------------------| 
--16----------16----------16------|------16----------16----------13--| 
------13--14------13--14------13--|--14------13--14------13--14------| 
----------------------------------|----------------------------------| 
----------------------------------|----------------------------------| 

   PM  PM  PM  PM  PM  PM  PM  PM     PM  PM  PM  PM 
    E   E   E   E   E   E   E   E      E   E   E   E   E    E    E    E 
----------------------------------|-------------------------------------| 
----------------------------------|-------------------------------------| 
--16----------13----------11------|-------------------------------------| 
------14--11------14--11------14--|--11--------------11s--14s--11s--14--| 
----------------------------------|------14--11--14---------------------| 
----------------------------------|-------------------------------------| 

   PM  PM  PM  PM  PM  PM  PM  PM     PM  PM  PM  PM  PM  PM  PM  PM 
    E   E   E   E   E   E   E   E      E   E   E   E   E   E   E   E 
----------------------------------|----------------------------------| 
----------------------------------|----------------------------------| 
----------13----------13----------|--13----------13----------13------| 
--14--14------14--14------14--14--|------14--14------14--14------14--| 
----------------------------------|----------------------------------| 
----------------------------------|----------------------------------| 

   PM  PM  PM  PM  PM  PM  PM  PM 
    E   E   E   E   E   E   E   E      E    E    E    E   E   E   E    E 
----------------------------------|--------------------------------------| 
----------------------------------|--------------------------------------| 
--16----------16----------16------|--16s--18s--16s--18--16--13-----------| 
------13--14------13--14------13--|-----------------------------16s--18--| 
----------------------------------|--------------------------------------| 
----------------------------------|--------------------------------------| 

     PH 
     H        H           H        H 
--<>16--------L--------|--L-----------------| 
-----------------------|--------------------| 
-----------------------|--------------------| 
-----------------------|--------------------| 
-----------------------|--------------------| 
-----------------------|--------------------| 

   Q    E  E  E  E  E  E 
-------------------------| 
-------------------------| 
--6----------------------| 
--6----6--6--6--6--6--6--| 
--4----4--4--4--4--4--4--| 
-------------------------| 

  PM PM PM PM PM PM PM PM        PM     PM PM PM    PM PM PM PM PM PM PM PM 
   E  E  E  E  E  E  E  E     Q    E  E  E  E  E  E     E  E  E  E  E  E  E  E 
--------------------------|----------------------|--------------------------| 
--------------------------|----------------------|--------------------------| 
--------------------------|--4-------4--L--------|--------------------------| 
--6--6--6--6--6--6--6--6--|--4----4--4--L--4--4--|--4--4--4--4--4--4--4--4--| 
--4--4--4--4--4--4--4--4--|--2----2--2--L--2--2--|--2--2--2--2--2--2--2--2--| 
--------------------------|----------------------|--------------------------| 

       PM PM PM PM PM PM    PM PM PM PM PM PM PM PM         PM       PM PM PM 
   Q    E  E  E  E  E  E     E  E  E  E  E  E  E  E     Q    E  E  E  E  E  E 
-------------------------|--------------------------|-----------------------| 
-------------------------|--------------------------|-----------------------| 
--6----------------------|--------------------------|--4-------4--L---------| 
--6----6--6--6--6--6--6--|--6--6--6--6--6--6--6--6--|--4----4--4--L---4--4--| 
--4----4--4--4--4--4--4--|--4--4--4--4--4--4--4--4--|--2----2--2--L---2--2--| 
-------------------------|--------------------------|-----------------------| 

  PM PM PM PM    PM            PM PM PM PM PM PM PM PM PM PM PM PM PM PM 
  E  E  E  E  E  E  Q       E  S  S  S  S  S  S  S  S  S  S  S  S  S  S 
-------------------------|-----------------------------------------------| 
-------------------------|-----------------------------------------------| 
--------------------4----|--2--------------------------------------------| 
--4--4--4--4--4--4--4----|--2--------------------------------------------| 
--2--2--2--2--2--2--2----|--0--0--0--0--0--0--0--0--0--0--0--0--0--0--0--| 
-------------------------|-----------------------------------------------| 

  PM PM PM PM PM PM PM PM PM PM PM PM PM PM PM PM 
  S  S  S  S  S  S  S  S  S  S  S  S  S  S  S  S 
--------------------------------------------------| 
--------------------------------------------------| 
--------------------------------------------------| 
--------------------------------------------------| 
--0--0--0--0--0--0--0--0--0--0--0--0--0--0--0--0--| 
--------------------------------------------------| 

     PM PM PM PM    PM PM PM PM    PM PM 
  E  S  S  S  S  E  S  S  S  S  E  S  S 
-----------------------------------------| 
-----------------------------------------| 
--6--------------6--------------6--------| 
--6--------------6--------------6--------| 
--4--4--4--4--4--4--4--4--4--4--4--4--4--| 
-----------------------------------------| 

     PM PM PM PM    PM PM PM PM    PM PM 
  E  S  S  S  S  E  S  S  S  S  E  S  S 
-----------------------------------------| 
-----------------------------------------| 
--4--------------4--------------4--------| 
--4--------------4--------------4--------| 
--2--2--2--2--2--2--2--2--2--2--2--2--2--| 
-----------------------------------------| 

     PM PM PM PM PM PM PM PM PM PM PM PM PM PM 
  E  S  S  S  S  S  S  S  S  S  S  S  S  S  S 
-----------------------------------------------| 
-----------------------------------------------| 
--2--------------------------------------------| 
--2--------------------------------------------| 
--0--0--0--0--0--0--0--0--0--0--0--0--0--0--0--| 
-----------------------------------------------| 

  PM PM PM PM PM PM PM PM PM PM PM PM PM PM PM PM 
  S  S  S  S  S  S  S  S  S  S  S  S  S  S  S  S     W 
--------------------------------------------------|-------------------| 
--------------------------------------------------|-------------------| 
--------------------------------------------------|-------------------| 
--------------------------------------------------|--2----------------| 
--0--0--0--0--0--0--0--0--0--0--0--0--0--0--0--0--|--2----------------| 
--------------------------------------------------|--0----------------| 

                         PM PM PM PM PM PM PM PM PM PM PM PM PM PM 
  W                   E  S  S  S  S  S  S  S  S  S  S  S  S  S  S 
-------------------|-----------------------------------------------| 
-------------------|-----------------------------------------------| 
-------------------|--2--------------------------------------------| 
--L----------------|--2--------------------------------------------| 
--L----------------|--0--0--0--0--0--0--0--0--0--0--0--0--0--0--0--| 
--L----------------|-----------------------------------------------| 

  PM PM PM PM PM PM PM PM PM PM PM PM PM PM PM PM 
  S  S  S  S  S  S  S  S  S  S  S  S  S  S  S  S 
--------------------------------------------------| 
--------------------------------------------------| 
--------------------------------------------------| 
--------------------------------------------------| 
--0--0--0--0--0--0--0--0--0--0--0--0--0--0--0--0--| 
--------------------------------------------------| 

     PM PM    PM PM   SH    SH       PM PM    PM PM   SH    SH 
   E  E  E  E  E  E    E     E     E  E  E  E  E  E    E     E 
-------------------------------|-------------------------------| 
-------------------------------|-------------------------------| 
-------------------------------|-------------------------------| 
--2--------2--------<>2h--<>4--|-----------2--------<>2h--<>4--| 
-----2--2-----2--2-------------|--2--2--2-----2--2-------------| 
-------------------------------|-------------------------------| 

     PM PM    PM PM    PM       PM PM    PM PM    PM 
  E  E  E  E  E  E  E  E     E  E  E  E  E  E  E  E     W 
--------------------------|--------------------------|-------------------| 
--------------------------|--------------------------|-------------------| 
--------------------------|--------------------------|--9----------------| 
--6--------6--------6-----|--6--------6--------6-----|--9----------------| 
-----4--4-----4--4-----4--|-----4--4-----4--4-----4--|--7----------------| 
--------------------------|--------------------------|-------------------| 

                         PM PM PM PM       PM PM PM PM 
   W                   E  S  S  S  S  E  E  S  S  S  S  E 
-------------------|--------------------------------------| 
-------------------|--------------------------------------| 
--8----------------|--6--------------6--6--------------6--| 
--8----------------|--6--------------6--6--------------6--| 
--6----------------|--4--4--4--4--4--4--4--4--4--4--4--4--| 
-------------------|--------------------------------------| 

    PM PM PM PM       PM PM PM PM          PM PM PM PM       PM PM PM PM 
   E  S  S  S  S  E  E  S  S  S  S  E    E  S  S  S  S  E  E  S  S  S  S  E 
-------------------------------------|--------------------------------------| 
-------------------------------------|--------------------------------------| 
-6--------------6--6--------------6--|--6--------------6--6--------------6--| 
-6--------------6--6--------------6--|--6--------------6--6--------------6--| 
-4--4--4--4--4--4--4--4--4--4--4--4--|--4--4--4--4--4--4--4--4--4--4--4--4--| 
-------------------------------------|--------------------------------------| 

   Q      Q      Q      Q 
---x\-----------------------| 
---x\-----x-----------------| 
---x\-----x\-----x----------| 
----------x\-----x\-----x---| 
-----------------x\-----x---| 
------------------------x---| 
----------------------------| 

  PM PM PM PM PM PM PM PM PM PM PM PM PM PM PM PM 
   S  S  S  S  S  S  S  S  S  S  S  S  S  S  S  S 
--------------------------------------------------| 
--12-14-14-14-14-14-12-14-14-14-12-14-17-14-12-14-| 
--------------------------------------------------| 
--------------------------------------------------| 
--------------------------------------------------| 
--------------------------------------------------| 

   PM PM PM PM PM PM PM PM PM PM PM PM PM PM PM PM 
   S  S  S  S  S  S  S  S  S  S  S  S  S  S  S  S 
--------------------------------------------------| 
--12-14-14-14-14-14-12-14-14-14-12-14-17-14-12-14-| 
--------------------------------------------------| 
--------------------------------------------------| 
--------------------------------------------------| 
--------------------------------------------------| 

   PM PM PM PM PM PM PM PM PM PM PM PM PM PM PM PM 
   S  S  S  S  S  S  S  S  S  S  S  S  S  S  S  S 
--------------------------------------------------| 
--12-14-14-14-14-14-12-14-14-14-12-14-17-14-12-14-| 
--------------------------------------------------| 
--------------------------------------------------| 
--------------------------------------------------| 
--------------------------------------------------| 

   PM PM PM PM PM PM PM PM PM PM PM PM PM PM PM PM 
   S  S  S  S  S  S  S  S  S  S  S  S  S  S  S  S 
--------------------------------------------------| 
--12-14-14-14-14-14-12-14-14-14-12-14-17-14-12-14-| 
--------------------------------------------------| 
--------------------------------------------------| 
--------------------------------------------------| 
--------------------------------------------------| 

   PM PM PM PM PM PM PM PM PM PM PM PM PM PM PM PM 
   S  S  S  S  S  S  S  S  S  S  S  S  S  S  S  S 
--------------------------------------------------| 
--12-14-14-14-14-14-12-14-14-14-12-14-17-14-12-14-| 
--------------------------------------------------| 
--------------------------------------------------| 
--------------------------------------------------| 
--------------------------------------------------| 

   PM PM PM PM PM PM PM PM PM PM PM PM PM PM PM PM 
   S  S  S  S  S  S  S  S  S  S  S  S  S  S  S  S 
--------------------------------------------------| 
--12-14-14-14-14-14-12-14-14-14-12-14-17-14-12-14-| 
--------------------------------------------------| 
--------------------------------------------------| 
--------------------------------------------------| 
--------------------------------------------------| 

   PM PM PM PM PM PM PM PM PM PM PM PM PM PM PMPM 
   S  S  S  S  S  S  S  S  S  S  S  S  S  S  S S 
--16-16-------14-14-------12-12-------11-11-------| 
--------17-14-------16-12-------14-10-------12-9--| 
--------------------------------------------------| 
--------------------------------------------------| 
--------------------------------------------------| 
--------------------------------------------------| 

                              T 
   S   S  S   S  S  S  S   S  S   S   S  S  S  S  S   S 
--16p-14-----------14-16h-19-21p-19p-16-------16--------| 
---------17p-14-17----------------------17-19----19p-17-| 
--------------------------------------------------------| 
--------------------------------------------------------| 
--------------------------------------------------------| 
--------------------------------------------------------| 

  E  E  H.              W                   E  E  H. 
---------------------|-------------------|---------------------| 
---------------------|-------------------|---------------------| 
---------------------|-------------------|--4--6--L------------| 
--4--6--L------------|--L----------------|---------------------| 
---------------------|-------------------|---------------------| 
---------------------|-------------------|---------------------| 

  W                   E  E  H.              W 
-------------------|---------------------|-------------------| 
-------------------|--7--9--L------------|--L----------------| 
--L----------------|---------------------|-------------------| 
-------------------|---------------------|-------------------| 
-------------------|---------------------|-------------------| 
-------------------|---------------------|-------------------| 

   E  E  H.              W                     E  E  E  E  H 
--\9--7--L------------|--L\----------------|------------------------| 
----------------------|--------------------|--\9--7-----------------| 
----------------------|--------------------|------------9--L--------| 
----------------------|--------------------|------------------------| 
----------------------|--------------------|------------------------| 
----------------------|--------------------|------------------------| 

  E  E  E  E  E  Q.             E.  S E  E   Q        Q 
------------------------|----|-----------------------------|----------------| 
------------------------|----|--9---7---9--11----/<>12-----|----------------| 
--9--8-----------8------|----|-----------------------------|----------------| 
-----------9------------|----|-----------------------------|----------------| 
------------------------|----|-----------------------------|----------------| 
------------------------|----|-----------------------------|----------------| 

    E   E  E   E  H            E   E  E   E  E   Q. 
---------------------------|----------------------------| 
--\12--11------------------|----------------------------| 
--------------13--L--------|--13--11------------11------| 
---------------------------|-------------13-------------| 
---------------------------|----------------------------| 
---------------------------|----------------------------| 

     PH     PM PM PM PM PM PM PM PM PM PM PM PM PM PM 
     S   S  S  S  S  S  S  S  S  S  S  S  S  S  S  S 
-----------------------------------------------------| 
-----------------------------------------------------| 
--<>13p-11----11----------------------------------11-| 
-----------13----13-11----------------11-13-11-13----| 
-----------------------14----11-11-14----------------| 
--------------------------14-------------------------| 

   E.   S E   E   Q        Q 
--------------------------------| 
--12---11-L--12--14----/<>16----| 
--------------------------------| 
--------------------------------| 
--------------------------------| 
--------------------------------| 

   |--3--|  |--3--|  |--3--|  |--3--|  |--3--|  |--3--|  |--3--|  |--3--| 
   S  S  S  S  S  S  S  S  S  S  S  S  S  S  S  S  S  S  S  S  S  S  S  S 
--23-19----------19-21-19----------19-23-19----------18-23-19----24-19----| 
--------21----21----------21----21----------21----21----------21-------21-| 
-----------20----------------20----------------20-------------------------| 
--------------------------------------------------------------------------| 
--------------------------------------------------------------------------| 
--------------------------------------------------------------------------| 

   |--3--|  |--3--|  |--3--|  |--3--|  |--3--|  |--3--|  |--3--|  |--3--| 
   S  S  S  S  S  S  S  S  S  S  S  S  S  S  S  S  S  S  S  S  S  S  S  S 
--21-18----------18-21-18----23-18----21-18----------18-------------18-21-| 
--------21----21----------21-------21-------21----21----21-------19-------| 
-----------18----------------------------------18----------18-20----------| 
--------------------------------------------------------------------------| 
--------------------------------------------------------------------------| 
--------------------------------------------------------------------------| 

   S  S  S  S  S  S  S  S  S  S  S  S  S  S  S  S 
--23-23-19-19-21-21-18-18-19-19-16-16-18-18-14-14-| 
--------------------------------------------------| 
--------------------------------------------------| 
--------------------------------------------------| 
--------------------------------------------------| 
--------------------------------------------------| 

    Harmonics: Slide down from approx. 31st fret on B 
     NH                                            NH   NH   NH   NH   NH 
     S                                             S    S    S    S    S 
--<>26-------------------------------------------<>26-<>26-<>23-<>23-<>23-<>- 
---------------------------------------------------------------------------- 
----------------------------------------------------------------------------- 
----------------------------------------------------------------------------- 
----------------------------------------------------------------------------- 
----------------------------------------------------------------------------- 

                                          PH 
  E  S S E  E  E  E  E  E     E  S S E    S  S H 
---------------------------|----------------------------|----|----|----|----| 
--4----2-L--------------2--|--4---------<>5s-7-L--------|----|----|----|----| 
------------4--L--1--4-----|-------4-L------------------|----|----|----|----| 
---------------------------|----------------------------|----|----|----|----| 
---------------------------|----------------------------|----|----|----|----| 
---------------------------|----------------------------|----|----|----|----| 
                 T          T             T 
                                          |---3--| 
   S   S  S   S  S   S   S  S   E   S  S  S   S  S  S  S 
---------------------------------------------------------| 
---------------------------------------------------------| 
---------13h-16-18p-16p-13-20p-11-----11-16p-11----11----| 
--13h-16---------------------------13-----------13----13-| 
---------------------------------------------------------| 
---------------------------------------------------------| 

                           pick with middle finger of right  hand 
   T      T     T       T                                         T 
                |---3---|  |---------------------3--------------------|   |---3- 
   S   S  S  S  S   S   S  S                                      S   S   E   E 
-------------------------------------------------------------------------------- 
-------------------------------------------------------------------------------- 
-----------------------------------------------------------------------------13- 
--------------------------11-------------------------------------18p-13h-16----- 
--14p-11-13p-9-14p-11h-14------------------------------------------------------- 
-------------------------------------------------------------------------------- 

   T                    T      T                    T 
   S   S   S  S  S   S  S   S  S   S   S  S  S   S  S   S 
--21p-16p-14----14h-16-21p-16-21p-16p-14----14h-16-21p-16-| 
-------------16--------------------------16---------------| 
----------------------------------------------------------| 
----------------------------------------------------------| 
----------------------------------------------------------| 
----------------------------------------------------------| 

   T 
   S   S  S  S  S  S  S  S S  S  S  S  S  S  S  S 
--19p-16---------------------------------------16-| 
---------16---------------------------------16----| 
------------16---------------------------16-------| 
---------------18-14---------------14-18----------| 
---------------------14---------14----------------| 
------------------------16-L-16-------------------| 

   S  S  S  S  S  S  S  S  S  S  S  S  S  S  S  S 
--24-23-19-------------19-21-19-18----------------| 
-----------21----21-23-------------21-19-17-21-19-| 
--------------20----------------------------------| 
--------------------------------------------------| 
--------------------------------------------------| 
--------------------------------------------------| 

   S  S  S  S  S  S  S  S  S  S  S  S  S  S  S  S     W 
--------------21-23-18----------19-21-24-23-21-23-|--24b~----------------| 
--17-16-17-19----------19-17-19-------------------|----------------------| 
--------------------------------------------------|----------------------| 
--------------------------------------------------|----------------------| 
--------------------------------------------------|----------------------| 
--------------------------------------------------|----------------------| 

             T             T      T      T             T      T 
             S   S  S   S  S   S  S   S  S   S  S   S  S   S  S   S 
----|----|----------------------------------------------------------| 
----|----|----------------------------------------------------------| 
----|----|--13p-11p-9h-11-13p-11-16p-11-16p-13p-9h-13-16p-13-18p-13-| 
----|----|----------------------------------------------------------| 
----|----|----------------------------------------------------------| 
----|----|----------------------------------------------------------| 

   T              T      T      T      T      T 
   S   S   S   S  S   S  S   S  S   S  S   S  S   S   S  S 
-----------------------------------------------------------| 
-----------------------------------------------------------| 
--20p-16p-11h-16-20p-16-21p-16-18p-11-18p-11-20p-16p-13-18-| 
-----------------------------------------------------------| 
-----------------------------------------------------------| 
-----------------------------------------------------------| 

   w/ wah 
    E      S  S  S  S  S  S  E   S  S  S  S  E 
-----------------------------------------------| 
-----------------------------------------------| 
--18-----18-18-18-18-18-20-18--18-18-18-18-16--| 
-----------------------------------------------| 
-----------------------------------------------| 
-----------------------------------------------| 

   S  S  S  S  S  S  S  S  S  S  S  S  S  S  S  S 
--------------------------------------------------| 
--------------------------14-14-14-14-14-14-14-14-| 
--15-15-15-15-15-15-15-16-------------------------| 
--------------------------------------------------| 
--------------------------------------------------| 
--------------------------------------------------| 

    E.      S E   E   Q       Q 
-----------------------------------| 
--/17---19g16-L--14----------------| 
---------------------16------------| 
---------------------------<>18----| 
-----------------------------------| 
-----------------------------------| 

   S  S  S  S  S  S  S  S S  S  S  S  S  S  S  S 
-----------------------14-L----------------------| 
--------------16----16---------------------------| 
-----------16----16------------------------------| 
--16-13-16------------------16-14-13-14-16-13----| 
----------------------------------------------16-| 
-------------------------------------------------| 

    E   Q     S  S  E   E   E   E 
----------------------------------| 
--12--12----12-14-12--------------| 
----------------------15--13--11--| 
----------------------------------| 
----------------------------------| 
----------------------------------| 

   PM PM PM PM PM PM PM PM PM PM PM PM PM PM PM PM 
   S  S  S  S  S  S  S  S  S  S  S  S  S  S  S  S 
--------------------------------------------------|----|----| 
--------------12----------12-12-12-12-11-12-12-11-|----|----| 
--11-11-11-11----11-11-11-------------------------|----|----| 
--------------------------------------------------|----|----| 
--------------------------------------------------|----|----| 
--------------------------------------------------|----|----| 

                                 SH               PH 
  E.   E.   E   Q.     E         Q.     E  Q      Q 
--------------------------|----------------------------|-------|-------|----| 
--9---11---12--11---------|----------------9----<>7----|-------|-------|----| 
--------------------------|--6g<>9---------------------|-------|-------|----| 
-----------------------9--|-------------9--------------|-------|-------|----| 
--------------------------|----------------------------|-------|-------|----| 
--------------------------|----------------------------|-------|-------|----| 

   S  S  S  S  S  S  S  S  S  S  S  S  S  S  S  S 
--11----------------------------------------------| 
-----12-11-12-11----------------------------------| 
-----------------13-11-13-11----------11----------| 
-----------------------------14-13-14----14-13----| 
-----------------------------------------------14-| 
--------------------------------------------------| 

                                               PH 
   |--3--|        |--3--| 
   S  S  S  S  S  S  S  S  S  S  S  S  S  S    Q 
-----------------------------------------------------| 
-----------------------11-12-------11-12-14-<>16~----| 
-----------------11-13-------11-13-------------------| 
--------11-13-14-------------------------------------| 
--13-14----------------------------------------------| 
-----------------------------------------------------| 

                           |---3---| 
   S  S  S  S  S  S  S  S  E   E   E   S  S  S  S 
--19-18-16-14-16-14-------------------------------| 
--------------------16-15-16--15--14-----14-------| 
--------------------------------------16----16-13-| 
--------------------------------------------------| 
--------------------------------------------------| 
--------------------------------------------------| 

   |--3--|        |--3--|        |--3--|        |--3--| 
   S  S  S  S  S  S  S  S  S  S  S  S  S  S  S  S  S  S  S  S 
--19-16-21-16-14-19-16-21-16-14-21-16-21-16-14-21-16-23-16-14-|----|----|----| 
--------------------------------------------------------------|----|----|----| 
--------------------------------------------------------------|----|----|----| 
--------------------------------------------------------------|----|----|----| 
--------------------------------------------------------------|----|----|----| 
--------------------------------------------------------------|----|----|----| 

         Q.      Q.      Q        H.           Q 
----|--/16------14------------|---------------------| 
----|-------------------17----|--14-----------------| 
----|-------------------------|---------------------| 
----|-------------------------|---------------------| 
----|-------------------------|---------------------| 
----|-------------------------|---------------------| 

                                 PH 
      Q.      Q.      Q          E    E  H. 
--19g21------19------16----|--<>14s--16--L------------| 
---------------------------|--------------------------| 
---------------------------|--------------------------| 
---------------------------|--------------------------| 
---------------------------|--------------------------| 
---------------------------|--------------------------| 

   PM PM PM PM PM PM PM PM PM PM PM PM PM PM PM PM 
   S  S  S  S  S  S  S  S  S  S  S  S  S  S  S  S 
--------------------------------------------------| 
--16-17-17-17-17-17-16-17-17-17-16-17-21-17-16-17-| 
--------------------------------------------------| 
--------------------------------------------------| 
--------------------------------------------------| 
--------------------------------------------------| 

   T          T          T          T          T          T          T 
   |---3---|  |---3---|  |---3---|  |---3---|  |---3---|  |---3---|  |---3---| 
   S   S   S  S   S   S  S   S   S  S   S   S  S   S   S  S   S   S  S   S   S 
--21p-12h-16-21p-12h-16-21p-12h-16-21p-12h-16-21p-12h-16-21p-12h-16-21p-12h-16-2 
-------------------------------------------------------------------------------- 
-------------------------------------------------------------------------------- 
-------------------------------------------------------------------------------- 
-------------------------------------------------------------------------------- 
-------------------------------------------------------------------------------- 

   S  S  S  S  S  S  S  S  S  S  S  S  S  S  S  S 
--17-------17-17----17-------17-------17-------17-| 
--------17-------17----14-17----14-17----14-17----| 
-----14-------------------------------------------| 
--------------------------------------------------| 
--------------------------------------------------| 
--------------------------------------------------| 

   E.   S S S  E      Q     Q 
--19---17-L---16--19g16----14----| 
---------------------------------| 
---------------------------------| 
---------------------------------| 
---------------------------------| 
---------------------------------| 

                            S  S  S  S  S  S  S  S  S  S  S  S  S  S  S  S 
----|----|----|----|----|--16-14-16-12-16-11-16----16----16-------------12-| 
----|----|----|----|----|-----------------------14----12-------12-14-16----| 
----|----|----|----|----|-----------------------------------14-------------| 
----|----|----|----|----|--------------------------------------------------| 
----|----|----|----|----|--------------------------------------------------| 
----|----|----|----|----|--------------------------------------------------| 

   S  S  S  S  S S  S  S  S  S  S  S  S  S S  S 
--14-12-14-11-14-9-14----14----14----------9-11-| 
----------------------12----10-------10-12------| 
----------------------------------13------------| 
------------------------------------------------| 
------------------------------------------------| 
------------------------------------------------| 

   7   7   7   7   7   7   7   7   7   7   7   7   7   7 
    E   E   E   E   E   E   E   E   E   E   E   E   E   E 
----------------------------------------------------------| 
--------------------------------------------------12--14--| 
----------------------------------------------13----------| 
------------------11------------------11--13--------------| 
----------11--12--------------11--12----------------------| 
--11--12--------------11--12------------------------------| 

   7   7   7   7   7   7   7   7   7   7   7   7   7   7 
    E   E   E   E   E   E   E   E   E   E   E   E   E   E 
--------------------------11--12--14--17--21--14--17--21--| 
------------------12--14----------------------------------| 
------11--13--14------------------------------------------| 
--14------------------------------------------------------| 
----------------------------------------------------------| 
----------------------------------------------------------| 

   |--3--|  |--3--| 
   S  S  S  S  S  S  S  S  S  S  S  S  S  S  S  S  S  S 
--------------------16-14-------16----------------------| 
--------------14-16-------17-16----17-16-17-16----16----| 
--------13-16----------------------------------16----16-| 
--13-16-------------------------------------------------| 
--------------------------------------------------------| 
--------------------------------------------------------| 

                           T 
   S  S  S  S  S  S  S  S  S   S   S   S  Q 
------------------------------------------------| 
--------------------------21p-16p-12h-16-19b----| 
--14-16-14-13-----------------------------------| 
--------------14-13-14-16-----------------------| 
------------------------------------------------| 
------------------------------------------------| 

   |--3--|  |--3--|  |--3--|  |--3--|  |--3--|  |--3--|  |--3--|  |--3--| 
   S  S  S  S  S  S  S  S  S  S  S  S  S  S  S  S  S  S  S  S  S  S  S  S 
--17-16-14-16-17-16-14----------------------------------------------------| 
-----------------------17-16-14-16-17-16-14-------------------------------| 
--------------------------------------------16-14-13----------------------| 
-----------------------------------------------------16-14-16-14-13-14-16-| 
--------------------------------------------------------------------------| 
--------------------------------------------------------------------------| 

   tr      tr     tr      tr      tr      tr      tr     tr 
    E       E      E       E       E       E       E      E 
---------------------------------21(16)------------------------|----|----|----| 
-------------------------16(12)----------17(14)--14(9)---------|----|----|----| 
----------13(9)--16(13)---------------------------------13(9)--|----|----|----| 
--14(11)-------------------------------------------------------|----|----|----| 
---------------------------------------------------------------|----|----|----| 

     PM PM PM PM                   PM PM PM PM 
  E  S  S  S  S  E  H           E  S  S  S  S  E  H 
-----------------------------|-----------------------------| 
-----------------------------|-----------------------------| 
--6--------------6--L--------|--6--------------6--L--------| 
--6--------------6--L--------|--6--------------6--L--------| 
--4--4--4--4--4--4--L--------|--4--4--4--4--4--4--L--------| 
-----------------------------|-----------------------------| 

     PM PM PM PM                   PM PM PM PM 
  E  S  S  S  S  E  H           E  S  S  S  S  E  H           W 
-----------------------------|-----------------------------|-------------------| 
-----------------------------|-----------------------------|-------------------| 
-----------------------------|-----------------------------|-------------------| 
--7--------------7--L--------|--7--------------7--L--------|--4----------------| 
--7--------------7--L--------|--7--------------7--L--------|--4----------------| 
--5--5--5--5--5--5--L--------|--5--5--5--5--5--5--L--------|--2----------------| 

                         PM PM PM PM    PM PM PM PM PM PM PM PM 
  W                   E  S  S  S  S  E  S  S  S  S  S  S  S  S 
-------------------|--------------------------------------------| 
-------------------|--------------------------------------------| 
-------------------|--4--------------4--------------------------| 
--2----------------|--4--------------4--------------------------| 
--2----------------|--2--2--2--2--2--2--2--2--2--2--2--2--2--2--| 
--0----------------|--------------------------------------------| 

     PM PM PM PM    PM PM PM PM PM PM PM PM 
  E  S  S  S  S  E  S  S  S  S  S  S  S  S 
--------------------------------------------| 
--------------------------------------------| 
--4--------------4--------------------------| 
--4--------------4--------------------------| 
--2--2--2--2--2--2--2--2--2--2--2--2--2--2--| 
--------------------------------------------| 

     PM PM PM PM    PM PM PM PM PM PM PM PM 
  E  S  S  S  S  E  S  S  S  S  S  S  S  S 
--------------------------------------------| 
--------------------------------------------| 
--6--------------6--------------------------| 
--6--------------6--------------------------| 
--4--4--4--4--4--4--4--4--4--4--4--4--4--4--| 
--------------------------------------------| 

  PM PM PM PM PM PM PM PM PM PM PM PM PM PM PM PM 
  S  S  S  S  S  S  S  S  S  S  S  S  S  S  S  S 
--------------------------------------------------| 
--------------------------------------------------| 
--------------------------------------------------| 
--------------------------------------------------| 
--4--4--4--4--4--4--4--4--4--4--4--4--4--4--4--4--| 
--------------------------------------------------| 

     PM PM PM PM    PM PM PM PM PM PM PM PM 
  E  S  S  S  S  E  S  S  S  S  S  S  S  S 
--------------------------------------------| 
--------------------------------------------| 
--------------------------------------------| 
--7-----------------------------------------| 
--7--------------7--------------------------| 
--5--5--5--5--5--5--5--5--5--5--5--5--5--5--| 

  PM PM PM PM PM PM PM PM PM PM PM PM PM PM PM PM 
  S  S  S  S  S  S  S  S  S  S  S  S  S  S  S  S     W 
--------------------------------------------------|-------------------| 
--------------------------------------------------|-------------------| 
--------------------------------------------------|--6----------------| 
--------------------------------------------------|--6----------------| 
--------------------------------------------------|--4----------------| 
--5--5--5--5--5--5--5--5--5--5--5--5--5--5--5--5--|-------------------| 

 PM PM PM PM PM PM PM PM PM PM PM PM PM PM PM PM 
  S  S  S  S  S  S  S  S  S  S  S  S  S  S  S  S 
--------------------------------------------------| 
--------------------------------------------------| 
--------------------------------------------------| 
--2--4--4--4--4--4--2--4--4--4--2--4--6--4--2--4--| 
--------------------------------------------------| 
--------------------------------------------------| 

  PM PM PM PM PM PM PM PM PM PM PM PM PM PM PM PM 
  S  S  S  S  S  S  S  S  S  S  S  S  S  S  S  S 
--------------------------------------------------| 
--------------------------------------------------| 
--------------------------------------------------| 
--2--4--4--4--4--4--2--4--4--4--2--4--6--4--2--4--| 
--------------------------------------------------| 
--------------------------------------------------| 

  PM PM PM PM PM PM PM PM PM PM PM PM PM PM PM PM 
  S  S  S  S  S  S  S  S  S  S  S  S  S  S  S  S 
--------------------------------------------------| 
--------------------------------------------------| 
--------------------------------------------------| 
--4--6--6--6--6--6--4--6--6--6--4--6--9--6--4--6--| 
--------------------------------------------------| 
--------------------------------------------------| 

  PM PM PM PM PM PM PM PM PM PM PM PM PM PM PM PM 
  S  S  S  S  S  S  S  S  S  S  S  S  S  S  S  S      Q.      Q.      Q 
--------------------------------------------------|--16------12------------| 
--------------------------------------------------|------------------12----| 
--6--6--4-----4-----4--6--4-----------------------|------------------------| 
-----------6-----6-----------6--4-----4--6--4-----|------------------------| 
-----------------------------------7-----------7--|------------------------| 
--------------------------------------------------|------------------------| 

   Q.      Q.      Q        Q.      E  Q        Q       W 
--12------16------19----|--19------21-------19g21----|--L----------------| 
------------------------|----------------------------|-------------------| 
------------------------|----------------------------|-------------------| 
------------------------|----------------------------|-------------------| 
------------------------|----------------------------|-------------------| 
------------------------|----------------------------|-------------------| 

  Q     E   E   Q        Q        Q.      Q.      Q 
--L----19--16--19----19g21----|--19------16------------| 
------------------------------|------------------17----| 
------------------------------|------------------------| 
------------------------------|------------------------| 
------------------------------|------------------------| 
------------------------------|------------------------| 

   E   E   H.              W                    Q.      E  Q     Q 
------------------------|-------------------|--19------21-------16----| 
--19--21----------------|-------------------|-------------------------| 
----------18------------|--L----------------|-------------------------| 
------------------------|-------------------|-------------------------| 
------------------------|-------------------|-------------------------| 
------------------------|-------------------|-------------------------| 

                PM  PM                           PH 
   H.            E   E      Q.      E  Q          Q       H.            E   E 
--L--------------------|--16------19------------------|-----------------------| 
---------------17--19--|-------------------19g<>17----|--L------------17--19--| 
-----------------------|------------------------------|-----------------------| 
-----------------------|------------------------------|-----------------------| 
-----------------------|------------------------------|-----------------------| 
-----------------------|------------------------------|-----------------------| 

   Q.      Q.      Q        Q.      Q.      Q        E   E   H. 
------------------------|------------------------|------------------------| 
--21------19------17----|--19------17------------|------17----------------| 
------------------------|------------------16----|--18------18------------| 
------------------------|------------------------|------------------------| 
------------------------|------------------------|------------------------| 
------------------------|------------------------|------------------------| 

              E  E  E  E  E  E  E  E     E  E  E  E  Q    E  E 
-----|-----|--------------------------|-------------------------| 
-----|-----|--------------------------|-------------------------| 
-----|-----|--6-----------------------|-------------------------| 
-----|-----|--------4--6--L-----4--6--|--4--4----------------6--| 
-----|-----|-----4-----------4--------|--------7--4--L----4-----| 
-----|-----|--------------------------|-------------------------| 

   E  E  E  E  E  E  E  E     E  E  E  E  Q    E  E     E  E  E  E  E  E  E  E 
--------------------------|-------------------------|--------------------------| 
--------------------------|-------------------------|--------------------------| 
--6-----------------------|-------------------------|--6-----------------------| 
--------4--6--L-----4--6--|--4--4----------------6--|--------4--6--L-----4--6--| 
-----4-----------4--------|--------7--4--L----4-----|-----4-----------4--------| 
--------------------------|-------------------------|--------------------------| 

   E  E  E  E  Q    E  E     E  E  E  E  E  E  E  E     E  E  E  E  E  E  E  E 
-------------------------|--------------------------|--------------------------| 
-------------------------|--------------------------|--------------------------| 
-------------------------|--6-----------------------|--------------------------| 
--4--4----------------6--|--------4--6--L-----4--6--|--4--4--------------6--7--| 
--------7--4--L----4-----|-----4-----------4--------|--------7--4-----4--------| 
-------------------------|--------------------------|--------------4-----------| 

acoustic 

   W                                       E  E  E  E  E  E  E  E 
-------------------|-------------------|--------------------------| 
-------------------|-------------------|--------------------------| 
-------------------|-------------------|--------------1-----------| 
--L----------------|-------------------|-----------2-----2--------| 
-------------------|-------------------|-----0--4-----------4--0--| 
-------------------|-------------------|--0-----------------------| 

   E  E  E  E  E  E  E  E     E  E  E  E  E  E  E  E 
--------------------------|--------------------------| 
--------------------------|--------------2-----------| 
--------------------------|-----------1-----1--------| 
-----------2--4--2--------|--------2-----------2-----| 
-----0--4-----------4--0--|-----4-----------------4--| 
--0-----------------------|--0-----------------------| 

   E  E  E  E  E  E  E  E     E  E  E  E  E  E  E  E 
--------------------------|--------------------------| 
--------------------------|--------------------------| 
--------------1-----------|--------------------------| 
-----------2-----2--------|--------------2-----------| 
-----0--4-----------4--0--|-----0--2--4-----4--2--0--| 
--0-----------------------|--0-----------------------| 

   E  E  E  E  E  E  E  E     E  E  E  E  E  E  E  E 
--------------------------|--------------------------| 
--------------------------|--------------2-----------| 
--------------------------|-----------1-----1--------| 
--------------2-----------|--------2-----------2-----| 
-----0--2--4-----4--2--0--|-----2-----------------2--| 
--0-----------------------|--0-----------------------| 

   E  E  E  E  E  E  E  E     E  E  E  E  E  E  E  E 
--------------------------|--------------------------| 
--------------------------|--------------------------| 
--------------1-----------|--------------------------| 
-----------2-----2--------|--------------2-----------| 
-----0--4-----------4--0--|-----0--2--4-----4--2--0--| 
--0-----------------------|--0-----------------------| 

   E  E  E  E  E  E  E  E     E  E  E  E  E  E  E  E 
--------------------------|--------------------------| 
--------------------------|--------------------------| 
--------------1-----------|--------------1-----------| 
-----------2-----2--------|-----------2-----2--------| 
-----0--4-----------4--0--|-----0--4-----------4--0--| 
--0-----------------------|--0-----------------------| 

  E  E  E  E  E  E  E  E     W 
--------------------------|-------------------| 
--------------------------|-------------------| 
-----------1--------------|-------------------| 
--------2-----2-----------|-------------------| 
-----2-----------2-----2--|--0----------------| 
--0-----------------0-----|-------------------| 

   W                   W 
-------------------|-------------------|-------------------|-------------------| 
-------------------|-------------------|-------------------|-------------------| 
-------------------|-------------------|--2----------------|--L----------------| 
-------------------|-------------------|--2----------------|--L----------------| 
-------------------|-------------------|--0----------------|--L----------------| 
-------------------|-------------------|-------------------|-------------------| 

  W                   Q.     Q.     Q       W 
-------------------|---------------------|-------------------| 
-------------------|---------------------|-------------------| 
--4----------------|--4------2-----------|--2----------------| 
--4----------------|--4------2------6----|--2----------------| 
--2----------------|--2------0------6----|--0----------------| 
-------------------|----------------4----|-------------------| 

  W                   W                   Q.     Q.     Q 
-------------------|-------------------|---------------------| 
-------------------|-------------------|---------------------| 
--L----------------|-------------------|---------------------| 
--L----------------|--6----------------|--6------4------2----| 
--L----------------|--6----------------|--6------4------2----| 
-------------------|--4----------------|--4------2------0----| 

      PM PM PM PM     PM PM PM PM     PM PM 
   E  S  S  S  S   E  S  S  S  S   E  S  S 
--------------------------------------------| 
--10--------------10--------------10--------| 
---9---------------9---------------9--------| 
---7--7--7--7--7---7--7--7--7--7---7--7--7--| 
--------------------------------------------| 
--------------------------------------------| 

  PM PM     PM PM PM PM     PM PM     PM PM 
  S  S   E  S  S  S  S   E  S  S   E  S  S 
--------------------------------------------| 
--------10--------------10--------10--------| 
---------9---------------9---------9--------| 
--7--7---7--7--7--7--7---7--7--7---7--7--7--| 
--------------------------------------------| 
--------------------------------------------| 

      PM PM PM PM     PM PM PM PM     PM PM    PM PM 
   E  S  S  S  S   E  S  S  S  S   E  S  S     S  S   E  Q    H 
--------------------------------------------|--------------------------| 
--10--------------10--------------10--------|--------10----------------| 
---9---------------9---------------9--------|---------9----------------| 
---7--7--7--7--7---7--7--7--7--7---7--7--7--|--7--7---7----------------| 
--------------------------------------------|--------------------------| 
--------------------------------------------|--------------------------| 

     PM PM PM PM    PM PM PM PM    PM PM 
  E  S  S  S  S  E  S  S  S  S  E  S  S 
-----------------------------------------| 
-----------------------------------------| 
--6--------------6--------------6--------| 
--6--------------6--------------6--------| 
--4--4--4--4--4--4--4--4--4--4--4--4--4--| 
-----------------------------------------| 

     PM PM PM PM    PM PM PM PM    PM PM 
  E  S  S  S  S  E  S  S  S  S  E  S  S     W 
-----------------------------------------|-------------------| 
-----------------------------------------|-------------------| 
--6--------------6--------------6--------|--2----------------| 
--6--------------6--------------6--------|--2----------------| 
--4--4--4--4--4--4--4--4--4--4--4--4--4--|--0----------------| 
-----------------------------------------|-------------------| 

                         PM PM PM PM    PM PM PM PM    PM PM 
  W                   E  S  S  S  S  E  S  S  S  S  E  S  S 
-------------------|-----------------------------------------| 
-------------------|-----------------------------------------| 
--4----------------|--6--------------6--------------6--------| 
--4----------------|--6--------------6--------------6--------| 
--2----------------|--4--4--4--4--4--4--4--4--4--4--4--4--4--| 
-------------------|-----------------------------------------| 

     PM PM PM PM    PM PM PM PM    PM PM 
  E  S  S  S  S  E  S  S  S  S  E  S  S     W 
-----------------------------------------|-------------------| 
-----------------------------------------|-------------------| 
--6--------------6--------------6--------|--2----------------| 
--6--------------6--------------6--------|--2----------------| 
--4--4--4--4--4--4--4--4--4--4--4--4--4--|--0----------------| 
-----------------------------------------|-------------------| 

                         PM PM PM PM    PM PM PM PM    PM PM 
  W                   E  S  S  S  S  E  S  S  S  S  E  S  S 
-------------------|-----------------------------------------| 
-------------------|-----------------------------------------| 
--4----------------|--6--------------6--------------6--------| 
--4----------------|--6--------------6--------------6--------| 
--2----------------|--4--4--4--4--4--4--4--4--4--4--4--4--4--| 
-------------------|-----------------------------------------| 

     PM PM PM PM    PM PM PM PM    PM PM 
  E  S  S  S  S  E  S  S  S  S  E  S  S     W 
-----------------------------------------|-------------------| 
-----------------------------------------|-------------------| 
--6--------------6--------------6--------|--2----------------| 
--6--------------6--------------6--------|--2----------------| 
--4--4--4--4--4--4--4--4--4--4--4--4--4--|--0----------------| 
-----------------------------------------|-------------------| 

                         PM PM PM PM    PM PM PM PM    PM PM 
  W                   E  S  S  S  S  E  S  S  S  S  E  S  S 
-------------------|-----------------------------------------| 
-------------------|-----------------------------------------| 
--4----------------|--6--------------6--------------6--------| 
--4----------------|--6--------------6--------------6--------| 
--2----------------|--4--4--4--4--4--4--4--4--4--4--4--4--4--| 
-------------------|-----------------------------------------| 

     PM PM PM PM    PM PM PM PM    PM PM 
  E  S  S  S  S  E  S  S  S  S  E  S  S     W 
-----------------------------------------|-------------------| 
-----------------------------------------|-------------------| 
--6--------------6--------------6--------|--2----------------| 
--6--------------6--------------6--------|--2----------------| 
--4--4--4--4--4--4--4--4--4--4--4--4--4--|--0----------------| 
-----------------------------------------|-------------------| 

                         PM PM PM PM    PM PM PM PM    PM PM 
  W                   E  S  S  S  S  E  S  S  S  S  E  S  S 
-------------------|-----------------------------------------| 
-------------------|-----------------------------------------| 
--4----------------|--6--------------6--------------6--------| 
--4----------------|--6--------------6--------------6--------| 
--2----------------|--4--4--4--4--4--4--4--4--4--4--4--4--4--| 
-------------------|-----------------------------------------| 

     PM PM PM PM    PM PM PM PM    PM PM 
  E  S  S  S  S  E  S  S  S  S  E  S  S     W 
-----------------------------------------|-------------------| 
-----------------------------------------|-------------------| 
--6--------------6--------------6--------|--2----------------| 
--6--------------6--------------6--------|--2----------------| 
--4--4--4--4--4--4--4--4--4--4--4--4--4--|--0----------------| 
-----------------------------------------|-------------------| 

                         PM PM PM PM    PM PM PM PM    PM PM 
  W                   E  S  S  S  S  E  S  S  S  S  E  S  S 
-------------------|-----------------------------------------| 
-------------------|-----------------------------------------| 
--4----------------|--6--------------6--------------6--------| 
--4----------------|--6--------------6--------------6--------| 
--2----------------|--4--4--4--4--4--4--4--4--4--4--4--4--4--| 
-------------------|-----------------------------------------| 

     PM PM PM PM    PM PM PM PM    PM PM 
  E  S  S  S  S  E  S  S  S  S  E  S  S     W 
-----------------------------------------|-------------------| 
-----------------------------------------|-------------------| 
--6--------------6--------------6--------|--2----------------| 
--6--------------6--------------6--------|--2----------------| 
--4--4--4--4--4--4--4--4--4--4--4--4--4--|--0----------------| 
-----------------------------------------|-------------------| 

                         PM PM PM PM    PM PM PM PM    PM PM 
  W                   E  S  S  S  S  E  S  S  S  S  E  S  S 
-------------------|-----------------------------------------| 
-------------------|-----------------------------------------| 
--4----------------|--6--------------6--------------6--------| 
--4----------------|--6--------------6--------------6--------| 
--2----------------|--4--4--4--4--4--4--4--4--4--4--4--4--4--| 
-------------------|-----------------------------------------| 

     PM PM PM PM    PM PM PM PM    PM PM 
  E  S  S  S  S  E  S  S  S  S  E  S  S     W 
-----------------------------------------|-------------------| 
-----------------------------------------|-------------------| 
--6--------------6--------------6--------|--2----------------| 
--6--------------6--------------6--------|--2----------------| 
--4--4--4--4--4--4--4--4--4--4--4--4--4--|--0----------------| 
-----------------------------------------|-------------------| 

                         PM PM PM PM    PM PM PM PM    PM PM 
  W                   E  S  S  S  S  E  S  S  S  S  E  S  S 
-------------------|-----------------------------------------| 
-------------------|-----------------------------------------| 
--4----------------|--6--------------6--------------6--------| 
--4----------------|--6--------------6--------------6--------| 
--2----------------|--4--4--4--4--4--4--4--4--4--4--4--4--4--| 
-------------------|-----------------------------------------| 

     PM PM PM PM    PM PM PM PM    PM PM 
  E  S  S  S  S  E  S  S  S  S  E  S  S     W 
-----------------------------------------|-------------------| 
-----------------------------------------|-------------------| 
--6--------------6--------------6--------|--2----------------| 
--6--------------6--------------6--------|--2----------------| 
--4--4--4--4--4--4--4--4--4--4--4--4--4--|--0----------------| 
-----------------------------------------|-------------------| 

                         PM PM PM PM    PM PM PM PM    PM PM 
  W                   E  S  S  S  S  E  S  S  S  S  E  S  S 
-------------------|-----------------------------------------| 
-------------------|-----------------------------------------| 
--4----------------|--6--------------6--------------6--------| 
--4----------------|--6--------------6--------------6--------| 
--2----------------|--4--4--4--4--4--4--4--4--4--4--4--4--4--| 
-------------------|-----------------------------------------| 

  PM PM    PM PM PM PM PM PM PM PM PM PM PM PM 
  S  S  E  S  S  S  S  S  S  S  S  S  S  S  S     W 
-----------------------------------------------|-------------------| 
-----------------------------------------------|-------------------| 
--------6--------------------------------------|--2----------------| 
--------6--------------------------------------|--2----------------| 
--4--4--4--4--4--4--4--4--4--4--4--4--4--4--4--|--0----------------| 
-----------------------------------------------|-------------------| 

                         PM PM PM PM    PM PM PM PM    PM PM 
  W                   E  S  S  S  S  E  S  S  S  S  E  S  S 
-------------------|-----------------------------------------| 
-------------------|-----------------------------------------| 
--4----------------|--6--------------6--------------6--------| 
--4----------------|--6--------------6--------------6--------| 
--2----------------|--4--4--4--4--4--4--4--4--4--4--4--4--4--| 
-------------------|-----------------------------------------| 

  PM PM    PM PM PM PM    PM PM 
  S  S  E  S  S  S  S  E  S  S  Q       Q.     Q.     Q       W 
-------------------------------------|---------------------|-------------------| 
-------------------------------------|---------------------|-------------------| 
--------6--------------6--------6----|--6------4------2----|--L----------------| 
--------6--------------6--------6----|--6------4------2----|--L----------------| 
--4--4--4--4--4--4--4--4--4--4--4----|--4------2------0----|--L----------------| 
-------------------------------------|---------------------|-------------------| 

   H        Q    Q         Q.      E  Q     Q       H.            E   E 
----------------9s----|--14------16-------12----|--L--------------------| 
----------------------|-------------------------|---------------12--14--| 
----------------------|-------------------------|-----------------------| 
----------------------|-------------------------|-----------------------| 
----------------------|-------------------------|-----------------------| 
----------------------|-------------------------|-----------------------| 

   Q.      E  Q       Q       W                    Q.      Q.         Q 
--12------14-------11g7----|--L----------------|--16------19------19g21----| 
---------------------------|-------------------|---------------------------| 
---------------------------|-------------------|---------------------------| 
---------------------------|-------------------|---------------------------| 
---------------------------|-------------------|---------------------------| 
---------------------------|-------------------|---------------------------| 

                 PM  PM  PM      PH 
  E   Q.     E   E   E   E       E  E   Q    H 
--L--14---------------------|-------------------------|| 
----------------14--12--10--|--<>9--L\----------------|| 
----------------------------|-------------------------|| 
----------------------------|-------------------------|| 
----------------------------|-------------------------|| 
----------------------------|-------------------------|| 

Duration Legend 
--------------- 
W - whole 
H - half 
Q - quarter 
E|- 8th 
S - 16th 
T - 32nd 
X - 64th 
. - note dotted 
|-n-|  - n-tuplets 


Tablature Legend 
---------------- 
L - tied note 
x - dead note 
G|- grace note 
(n) - ghost note 
> - accentuded note 
NH - natural harmonic 
AH - artificial harmonic 
TH - tapped harmonic 
SH - semi harmonic 
PH - pitch harmonic 
h - hammer on 
p - pull off 
B|- bend 
br - bendRelease 
pb - preBend 
pbr - preBendRelease 
brb - bendReleaseBend 
\n/ - tremolo bar dip 
\n - tremolo bar dive 
-/n - tremolo bar Release up 
/n\ - tremolo bar inverted dip 
/n - tremolo bar return 
-\n - tremolo bar Release down 
S - shift slide 
s - legato slide 
/ -  slide into from below or out of upwards 
\ -  slide into from above or out of downwards 
~ - vibrato 
W - wide vibrato 
tr - trill 
TP - tremolo picking 
T - tapping 
S - slap 
P - pop 
< - fade in 
^ - brush up 
v - brush down 
	  

No existe una video leccione para esta canción

request
LosAcordes
Buscar
auto avanzar rasgueos aumentar disminuir cambiar color esconder acordes gráficos
losacordes exhibir acordes losacordes youTube video losacordes ocultar tabs losacordes ir hacia arriba losacordes