Distillers

Início > Distillers > acordes

Ask The Angels Tablatura

Distillers

Dificultad:Ningún gradoNingún grado

tuner correct add songbook print version text version salvar en e-mail
acordesukuleletablaturabajobateríaarmónicaflautacavacopiano Guitar Pro
acordes

Ask The Angels

	                          Distillers     
                      Ask the Angels 
 
Tabbed by: Jamie Stewart 
 
(b)= bend    (r) release 
 
Intro/ Verse 
 
E---------------------------------------------------9-----9------------7----7--------| 
B------------10---10-----------------------------10---10------------9----9--------| 
G------------11---11------------9---9-----------11---11------------9----9--------| 
D------------11---11------------9---9-----------11---11------------9----9--------| 
A------------9-----9-------------7---7------------9----9-------------7----7--------| 
E---------------------------------------------------------------------------------------| 
 Ask the angels, who they calling 
 Ask the angels if they calling to me 
 Ask the Angel why they're falling 
 
Chorus 
 
E---------------------------------------------------------------------------------------------------------| 
B---------------------------------------------------------------------------------------------------------| 
G------------9-----9-----9------------7-----7-----7----------------------------------------------------| 
D------------9-----9-----9------------7-----7-----7-----------5----5----5-----------7----7----7-----| 
A------------7-----7-----7------------5-----5-----5-----------5----5----5-----------7----7----7-----| 
E-----------------------------------------------------------------3----5----5-----------5----5----5-----| 
   And I know, you got the feeling 
   You know I feel it across the floor 
 
Solo #1 
                                       
E-----9----12----15---17 (b)----17----19----17----17----17---15---15---15-----17(b)----15 --------| 
B---------------------------------------------------------------------------------------------------------17---| 
G---------------------------------------------------------------------------------------------------------------| 
D---------------------------------------------------------------------------------------------------------------| 
A---------------------------------------------------------------------------------------------------------------| 
E----------------------------------------------------------------------------------------------------------------| 
 
Solo  #2 
 
                       |   Hold    | 
E------12(b)--12---12---12---12(r)---10-------------------------------------------------------------------------- 
B-----------------------------------------------12--------------------------------------------------------------------- 
G--------------------------------------------------------11--11--9--11-----11(b)--9------------------------------- 
D-------------------------------------------------------------------------------------------11--------------9--------- 
A-----------------------------------------------------------------------------------------------------11---------11--- 
E------------------------------------------------------------------------------------------------------------------------ 
 
E------------------------------------12(b)---12---12---12----12(r)-----------| 
B----------------------------------------------------------------------------| 
G----------------------------------------------------------------------------| 
D-----------9-----9------9---------------------------------------------------| 
A----------------11-----11---------------------------------------------------| 
E----------------------------------------------------------------------------| 
 
The "It's  Wild, Wild" Part 
 
E---------------------------------------------------| 
B---------------------------------------------------| 
G---------------------------------------------------| 
D---------------------------------------------------| 
A-------(6)------(6)------(6)-------(6)-------------| 
E-------(3)------(3)------(3)-------(3)-------------| 
 (Harmonics) 
 
              Questions, Comments, Requests e-mail me at [email protected] 
	  

No existe una video leccione para esta canción

request
LosAcordes
Buscar
auto avanzar rasgueos aumentar disminuir cambiar color esconder acordes gráficos
losacordes exhibir acordes losacordes youTube video losacordes ocultar tabs losacordes ir hacia arriba losacordes