Devildriver

Início > Devildrive... > acordes

Sin And Sacrifice Tablatura

Devildriver

Dificultad:Ningún gradoNingún grado

tamamoreira

tuner correct add songbook print version text version salvar en e-mail
acordesukuleletablaturabajobateríaarmónicaflautacavacopiano Guitar Pro
acordes

Sin And Sacrifice

	  

Tuning: B F# B E G# C# 




--------------------------------------------| 
--------------------------------------------| 
--------------------------------------------| 
--------------------------------------------| 
-12--12-12-12-12--13--13-13-13-13-13-13-13--| 
-12--12-12-12-12--12--12-12-12-12-12-12-12--| 

--------------------------------------------| 
--------------------------------------------| 
--------------------------------------------| 
-14--14-14-14-14----------------------------| 
-12--12-12-12-12--15--15-15-15-15-15-15-15--| 
-12--12-12-12-12--12--12-12-12-12-12-12-12--| 

--------------------------------------------| 
--------------------------------------------| 
--------------------------------------------| 
--------------------------------------------| 
-12--12-12-12-12--13--13-13-13-13-13-13-13--| 
-12--12-12-12-12--12--12-12-12-12-12-12-12--| 

--------------------------------------------| 
--------------------------------------------| 
--------------------------------------------| 
-14--14-14-14-14--15--15-15-15-15-15-15-15--| 
-12--12-12-12-12--12--12-12-12-12-12-12-12--| 
-12--12-12-12-12--12--12-12-12-12-12-12-12--| 



--------------------------------------------| 
--------------------------------------------| 
--------------------------------------------| 
--------------------------------------------| 
-12--12-12-12-12--13--13-13-13-13-13-13-13--| 
-12--12-12-12-12--12--12-12-12-12-12-12-12--| 

--------------------------------------------| 
--------------------------------------------| 
--------------------------------------------| 
-14--14-14-14-14----------------------------| 
-12--12-12-12-12--15--15-15-15-15-15-15-15--| 
-12--12-12-12-12--12--12-12-12-12-12-12-12--| 

--------------------------------------------| 
--------------------------------------------| 
--------------------------------------------| 
--------------------------------------------| 
-12--12-12-12-12--13--13-13-13-13-13-13-13--| 
-12--12-12-12-12--12--12-12-12-12-12-12-12--| 

-----------------| 
-----------------| 
-----------------| 
-14--14--14--15--| 
-13--13--13--13--| 
-12--12--12--12--| 







CD VER. START 

1 
--------------------------------------------| 
--------------------------------------------| 
--------------------------------------------| 
--------------------------------------------| 
-12--12-12-12-12--12--12-12-12-12-12-12-12--| 
-12--12-12-12-12--12--12-12-12-12-12-12-12--| 

2 
--------------------------------------------| 
--------------------------------------------| 
--------------------------------------------| 
-7-----------------8------------------------| 
--------------------------------------------| 
--------------------------------------------| 


1 

--------------------------------------------| 
--------------------------------------------| 
--------------------------------------------| 
--------------------------------------------| 
-12--12-12-12-12--12--12-12-12-12-12-12-12--| 
-12--12-12-12-12--12--12-12-12-12-12-12-12--| 

2 
--------------------------------------------| 
--------------------------------------------| 
-9------------------------------------------| 
------------------10------------------------| 
--------------------------------------------| 
--------------------------------------------| 




--------------------------------------------| 
--------------------------------------------| 
--------------------------------------------| 
--------------------------------------------| 
-12--12-12-12-12--12--12-12-12-12-12-12-12--| 
-12--12-12-12-12--12--12-12-12-12-12-12-12--| 


--------------------------------------------| 
--------------------------------------------| 
--------------------------------------------| 
-7---7--------------8-----------------------| 
--------------------------------------------| 
--------------------------------------------| 




1 

--------------------------------------------| 
--------------------------------------------| 
--------------------------------------------| 
--------------------------------------------| 
-12--12-12-12-12--12--12-12-12-12-12-12-12--| 
-12--12-12-12-12--12--12-12-12-12-12-12-12--| 

2 
--------------------------------------------| 
--------------------------------------------| 
-9----9-----------10------------------------| 
--------------------------------------------| 
--------------------------------------------| 
--------------------------------------------| 




1 
--------------------------------------------| 
--------------------------------------------| 
--------------------------------------------| 
--------------------------------------------| 
-12--12-12-12-12--12--12-12-12-12-12-12-12--| 
-12--12-12-12-12--12--12-12-12-12-12-12-12--| 

2 
--------------------------------------------| 
--------------------------------------------| 
--------------------------------------------| 
-7-----------------8------------------------| 
--------------------------------------------| 
--------------------------------------------| 

3 
--------------------------------------------| 
--------------------------(15)--------------| 
--------------------------------------------| 
--------------------------------------------| 
--------------------------------------------| 
--------------------------------------------| 



1 

--------------------------------------------| 
--------------------------------------------| 
--------------------------------------------| 
--------------------------------------------| 
-12--12-12-12-12--12--12-12-12-12-12-12-12--| 
-12--12-12-12-12--12--12-12-12-12-12-12-12--| 

2 
--------------------------------------------| 
--------------------------------------------| 
-9------------------------------------------| 
------------------10------------------------| 
--------------------------------------------| 
--------------------------------------------| 


3 
--------------------------------------------| 
---------(17)-(18)--------------------------| 
--------------------------------------------| 
--------------------------------------------| 
--------------------------------------------| 
--------------------------------------------| 


1 
--------------------------------------------| 
--------------------------------------------| 
--------------------------------------------| 
--------------------------------------------| 
-12--12-12-12-12--12--12-12-12-12-12-12-12--| 
-12--12-12-12-12--12--12-12-12-12-12-12-12--| 

2 
--------------------------------------------| 
--------------------------------------------| 
--------------------------------------------| 
-7---7--------------8-----------------------| 
--------------------------------------------| 
--------------------------------------------| 

3 
--------------------------------------------| 
---------(15)-------------------------------| 
--------------------------------------------| 
--------------------------------------------| 
--------------------------------------------| 
--------------------------------------------| 


1 

---------------------| 
---------------------| 
---------------------| 
---------------------| 
-12---12---12---13---| 
-12---12---12---12---| 

2 
---------------------| 
---------------------| 
-9---9-----------10--| 
---------------------| 
---------------------| 
---------------------| 

3 
----------------------| 
------------(18)-(17)-| 
----------------------| 
----------------------| 
----------------------| 
----------------------| 



\ 
\ 

0:16 

1 
--------------------------------------------------------------------| 
--------------------------------------------------------------------| 
--^-----------^--------------------^------------^-------------------| 
-5-7---------5-7-----------------10-12---------8-10-----------------| 
-----5-5-5-5-----5-5-5-5-5-5-5-5-------8-8-8-8------7-7-7-7-7-7-7-7-| 
--------------------------------------------------------------------| 

     * * * *     * * * * * * * *       * * * *      * * * * * * * * 
2 
----------------------------------------------------------------------| 
----------------------------------------------------------------------| 
----------------------------------------------------------------------| 
----------------------------------------------------------------------| 
-7----------8------------------8----------10--------------------------| 
-7--7-7-7-7-8--8-8-8-8-8-8-8-8-3--3-3-3-3-10--10-10-10-10-10-10-10-10-| 
    * * * *    * * * * * * * *    * * * *      *  *  *  *  *  *  *  * 


1 

--------------------------------------------------------------------| 
--------------------------------------------------------------------| 
--^-----------^--------------------^------------^-------------------| 
-5-7---------5-7-----------------10-12---------8-10-----------------| 
-----5-5-5-5-----5-5-5-5-5-5-5-5-------8-8-8-8------7-7-7-7-7-7-7-7-| 
--------------------------------------------------------------------| 

     * * * *     * * * * * * * *       * * * *      * * * * * * * * 
2 
--------------------------------------------------------------------| 
--------------------------------------------------------------------| 
--------------------------------------------------------------------| 
--------------------------------------------------------------------| 
-7----------8------------------2----------3-------------------------| 
-7--7-7-7-7-8--8-8-8-8-8-8-8-8-2--2-2-2-2-3--3-3-3-3-3-3-3-3--------| 
    * * * *    * * * * * * * *    * * * *    * * * * * * * * 



1 
--------------------------------------------------------------------| 
--------------------------------------------------------------------| 
--^-----------^--------------------^------------^-------------------| 
-5-7---------5-7-----------------10-12---------8-10-----------------| 
-----5-5-5-5-----5-5-5-5-5-5-5-5-------8-8-8-8------7-7-7-7-7-7-7-7-| 
--------------------------------------------------------------------| 


2 
----------------------------------------------------------------------| 
----------------------------------------------------------------------| 
----------------------------------------------------------------------| 
----------------------------------------------------------------------| 
-7----------8------------------3----------10--------------------------| 
-7--7-7-7-7-8--8-8-8-8-8-8-8-8-3--3-3-3-3-10--10-10-10-10-10-10-10-10-| 
    * * * *    * * * * * * * *    * * * *      *  *  *  *  *  *  *  * 

1 

--------------------------------------------------------------------| 
--------------------------------------------------------------------| 
--^-----------^--------------------^------------^-------------------| 
-5-7---------5-7-----------------10-12---------8-10-----------------| 
-----5-5-5-5-----5-5-5-5-5-5-5-5-------8-8-8-8------7-7-7-7-7-7-7-7-| 
--------------------------------------------------------------------| 


2 
--------------------------------------------------------------------| 
--------------------------------------------------------------------| 
--------------------------------------------------------------------| 
--------------------------------------------------------------------| 
-7----------8------------------2----------3-------------------------| 
-7--7-7-7-7-8--8-8-8-8-8-8-8-8-2--2-2-2-2-3--3-3-3-3-3-3-3-3--------| 
    * * * *    * * * * * * * *    * * * *    * * * * * * * * 



0:32 


1 
-------------------------------------------------------------------| 
-------------------------------------------------------------------| 
--^-----------^--------------------^------------^------------------| 
-7-0--^---^--7-0--^---^---^---^--12-0--^---^--12-0--^---^---^---^--| 
-----5-0-5-0-----5-0-5-0-5-0-5-0------8-0-8-0------7-0-7-0-7-0-7-0-| 
-------------------------------------------------------------------| 

2 
-------------------------------------------------------------------| 
-------------------------------------------------------------------| 
-------------------------------------------------------------------| 
-------------------------------------------------------------------| 
-7----------8--------------------3------------10-------------------| 
-7----------8--------------------3------------10-------------------| 


1 
-------------------------------------------------------------------| 
-------------------------------------------------------------------| 
--^-----------^--------------------^------------^------------------| 
-7-0--^---^--7-0--^---^---^---^--12-0--^---^--12-0--^---^---^---^--| 
-----5-0-5-0-----5-0-5-0-5-0-5-0------8-0-8-0------7-0-7-0-7-0-7-0-| 
-------------------------------------------------------------------| 

2 
-------------------------------------------------------------------| 
-------------------------------------------------------------------| 
-------------------------------------------------------------------| 
-------------------------------------------------------------------| 
-7-----------8--------------------2------------3-------------------| 
-7-----------8--------------------2------------3-------------------| 


1 
-------------------------------------------------------------------| 
-------------------------------------------------------------------| 
--^-----------^--------------------^------------^------------------| 
-7-0--^---^--7-0--^---^---^---^--12-0--^---^--12-0--^---^---^---^--| 
-----5-0-5-0-----5-0-5-0-5-0-5-0------8-0-8-0------7-0-7-0-7-0-7-0-| 
-------------------------------------------------------------------| 

2 
----------------------------------------------------------------------| 
----------------------------------------------------------------------| 
----------------------------------------------------------------------| 
----------------------------------------------------------------------| 
-7----------8------------------3----------10--------------------------| 
-7--7-7-7-7-8--8-8-8-8-8-8-8-8-3--3-3-3-3-10--10-10-10-10-10-10-10-10-| 
    * * * *    * * * * * * * *    * * * *      *  *  *  *  *  *  *  * 

1 
-------------------------------------------------------------------| 
-------------------------------------------------------------------| 
--^-----------^--------------------^------------^------------------| 
-7-0--^---^--7-0--^---^---^---^--12-0--^---^--12-0--^---^---^---^--| 
-----5-0-5-0-----5-0-5-0-5-0-5-0------8-0-8-0------7-0-7-0-7-0-7-0-| 
-------------------------------------------------------------------| 

2 
--------------------------------------------------------------------| 
--------------------------------------------------------------------| 
--------------------------------------------------------------------| 
--------------------------------------------------------------------| 
-7----------8------------------2----------3-------------------------| 
-7--7-7-7-7-8--8-8-8-8-8-8-8-8-2--2-2-2-2-3--3-3-3-3-3-3-3-3--------| 
    * * * *    * * * * * * * *    * * * *    * * * * * * * * 



0:48 


1 
-------------------------------------------------------------------------| 
-------------------------------------------------------------------------| 
-------------------------------------------------------------------------| 
-0-----------10-------------7--------------^-----------------------------| 
-0------------7-------------3-------------0-3-3-3-3-3-4~-4-4-4-4-4-4-4-4-| 
-0------------7-------------3--------------------------------------------| 

2 
-----------------------------------------| 
-----------------------------------------| 
---10--10-14--------5---9--------2---5---| 
/12--12-----------7---7-7------3---3-3---| 
-----------------------------------------| 
-----------------------------------------| 

1 
-------------------------------------------------------------------------| 
-------------------------------------------------------------------------| 
-------------------------------------------------------------------------| 
-0-----------10-------------7--------------^-----------------------------| 
-0------------7-------------3-------------0-3-3-3-3-3-4~-4-4-4-4-4-4-4-4-| 
-0------------7-------------3--------------------------------------------| 

2 
-----------------------------------------| 
-----------------------------------------| 
---10--10-14--------5---9--------2---5---| 
/12--12-----------7---7-7------3---3-3---| 
-----------------------------------------| 
-----------------------------------------| 





1:04 
W/WAH 

1 
---__-----------------__----------------------------| 
--/  \---------------/  \---------------------------| 
10-12-10-----------10-12-10-------------------------| 
--------12-12-12-12--------12-12-12-12-12-12-12-12--| 
----------------------------------------------------| 
----------------------------------------------------| 
         *  *  *  *         *  *  *  *  *  *  *  * 
2 
----------------------------------------------------| 
----------------------------------------------------| 
----------------------------------------------------| 
----------------------------------------------------| 
-5--------------------------------------------------| 
-----0--0--0--0--3--3--3--3--3--3--3--3--3--3-------| 
     *  *  *  *  *  *  *  *  *  *  *  *  *  * 

1 
---__-----------------__---------------------| 
--/  \---------------/  \--------------------| 
10-12-10-----------10-12-10------------------| 
--------12-12-12-12--------12-12-12-12-10-11-| 
---------------------------------------------| 
---------------------------------------------| 
         *  *  *  *         *  *  *  * 

2 
---------------------------------------------| 
--------------------------------------s--s---| 
--------------------------------------p--p---| 
--------------------------------------h--h---| 
--------------------------------------3--4---| 
--2--2--2--2--2--2--0--0--0--0--0--0---------| 
  *  *  *  *  *  *  *  *  *  *  *  * 





1 
---__-----------------__----------------------------| 
--/  \---------------/  \---------------------------| 
10-12-10-----------10-12-10-------------------------| 
--------12-12-12-12--------12-12-12-12-12-12-12-12--| 
----------------------------------------------------| 
----------------------------------------------------| 
         *  *  *  *         *  *  *  *  *  *  *  * 
2 
----------------------------------------------------| 
----------------------------------------------------| 
----------------------------------------------------| 
----------------------------------------------------| 
-5--------------------------------------------------| 
-----0--0--0--0--3--3--3--3--3--3--3--3--3--3-------| 
     *  *  *  *  *  *  *  *  *  *  *  *  *  * 

1 
---__-----------------__---------------------| 
--/  \---------------/  \--------------------| 
10-12-10-----------10-12-10------------------| 
--------12-12-12-12--------12-12-12-12-10-11-| 
---------------------------------------------| 
---------------------------------------------| 
         *  *  *  *         *  *  *  * 

2 
---------------------------------------------| 
--------------------------------------s--s---| 
--------------------------------------p--p---| 
--------------------------------------h--h---| 
--------------------------------------3--4---| 
--2--2--2--2--2--2--0--0--0--0--0--0---------| 
  *  *  *  *  *  *  *  *  *  *  *  * 


   __                 __ 
1 /  \               /  \ 
13-15-13-----------13-15-13------------------------| 
--------15-15-15-15--------15-15-15-15-15-15-15-15-| 
---------------------------------------------------| 
---------------------------------------------------| 
---------------------------------------------------| 
---------------------------------------------------| 


2 
---------------------------------------------------| 
---------------------------------------------------| 
---------------------------------------------------| 
---------------------------------------------------| 
-5---------------0--------------0------------------| 
-----0--0--0--0--3--3--3--3--3--3--3--3------------| 
     *  *  *  *  *  *  *  *  *  *  *  * 

   __                 __ 
1 /  \               /  \ 
13-15-13-----------13-15-13------------------------| 
--------15-15-15-15--------15-15-15-15-13-14-------| 
---------------------------------------------------| 
---------------------------------------------------| 
---------------------------------------------------| 
---------------------------------------------------| 

2 
---------------------------------------------------| 
---------------------------------------------------| 
---------------------------------------------------| 
---------------------------------------------------| 
-0--------------0--------------3--3--4--4----------| 
-2--2--2--2--2--0--0--0--0--0----------------------| 
    *  *  *  *     *  *  *  * 




   __                 __ 
1 /  \               /  \ 
13-15-13-----------13-15-13------------------------| 
--------15-15-15-15--------15-15-15-15-15-15-15-15-| 
---------------------------------------------------| 
---------------------------------------------------| 
---------------------------------------------------| 
---------------------------------------------------| 


2 
---------------------------------------------------| 
---------------------------------------------------| 
---------------------------------------------------| 
---------------------------------------------------| 
-5---------------0--------------0------------------| 
-----0--0--0--0--3--3--3--3--3--3--3--3------------| 
     *  *  *  *  *  *  *  *  *  *  *  * 

   __                 __ 
1 /  \               /  \ 
13-15-13-----------13-15-13------------------------| 
--------15-15-15-15--------15-15-15-15-13-14-(15)--| 
---------------------------------------------------| 
---------------------------------------------------| 
---------------------------------------------------| 
---------------------------------------------------| 

2 
---------------------------------------------------| 
---------------------------------------------------| 
---------------------------------------------------| 
---------------------------------------------------| 
-0--------------0--------------\-------------------| 
-2--2--2--2--2--0--0--0--0--0--\-------------------| 
    *  *  *  *     *  *  *  * 




1:20 


1 
----------------------------------------------------------------------| 
----------------------------------------------------------------------| 
----------------------------------------------------------------------| 
15-15-15-15-------14-14-14-14-----------------------------------------| 
12-12-12-12-------12-12-12-12-------15-15-15-15-------13-13-13-13-----| 
12-12-12-12-1212--12-12-12-12-1212--12-12-12-12-1212--12-12-12-12-1212| 
             * *               * *               * *               * * 

-----------------------------------------------------------------------| 
-----------------------------------------------------------------------| 
-----------------------------------------------------------------------| 
15-15-15-15-------14-14-14-14------------------------------------------| 
12-12-12-12-------12-12-12-12-------15-15-15-15-------13-13-13-13-13-13| 
12-12-12-12-1212--12-12-12-12-1212--12-12-12-12-1212--12-12-12-12-12-12| 
             * *               * *               * * 


1 
----------------------------------------------------------------------| 
----------------------------------------------------------------------| 
14-14-14-14-------13-13-13-13-----------------------------------------| 
15-15-15-15-------14-14-14-14-----------------------------------------| 
12-12-12-12-------12-12-12-12-------15-15-15-15-------13-13-13-13-----| 
12-12-12-12-1212--12-12-12-12-1212--12-12-12-12-1212--12-12-12-12-1212| 
             * *               * *               * *               * * 
2 
----------------------------------------------------------------------| 
----------------------------------------------------------------------| 
----------------------------------------------------------------------| 
15-15-15-15-------14-14-14-14-----------------------------------------| 
12-12-12-12-------12-12-12-12-------15-15-15-15-------13-13-13-13-----| 
12-12-12-12-1212--12-12-12-12-1212--12-12-12-12-1212--12-12-12-12-1212| 
             * *               * *               * *               * * 

1 
-----------------------------------------------------------------------| 
-----------------------------------------------------------------------| 
14-14-14-14-------13-13-13-13------------------------------------------| 
15-15-15-15-------14-14-14-14------------------------------------------| 
12-12-12-12-------12-12-12-12-------15-15-15-15-------13-13-13-13-13-13| 
12-12-12-12-1212--12-12-12-12-1212--12-12-12-12-1212--12-12-12-12-12-12| 
             * *               * *               * * 
2 
-----------------------------------------------------------------------| 
-----------------------------------------------------------------------| 
-----------------------------------------------------------------------| 
15-15-15-15-------14-14-14-14------------------------------------------| 
12-12-12-12-------12-12-12-12-------15-15-15-15-------13-13-13-13-13-13| 
12-12-12-12-1212--12-12-12-12-1212--12-12-12-12-1212--12-12-12-12-12-12| 
             * *               * *               * * 





1:31 


---------------------------------------| 
---------------------------------------| 
---------------------------------------| 
---------------------------------------| 
---------------------------------------| 
-11-0-12-0-14-0-0-0-0-15-0-0-15-0-15-0-| 
  * *  * *  * * * * *  * * *  * *  * * 

---------------------------------------| 
---------------------------------------| 
---------------------------------------| 
---------------------------------------| 
---------------------------------------| 
-11-0-12-0-14-0-0-0-0-15-0-0-15-0-15-0-| 
  * *  * *  * * * * *  * * *  * *  * * 

---------------------------------------| 
---------------------------------------| 
---------------------------------------| 
---------------------------------------| 
---------------------------------------| 
-11-0-12-0-14-0-0-0-0-15-0-0-15-0-15-0-| 
  * *  * *  * * * * *  * * *  * *  * * 

-----------------------------------| 
-----------------------------------| 
-----------------------------------| 
-----------------------------------| 
-----------------------------------| 
-5-0-7-0-8-0-7-0-5-3-2-0-5-0-2-0---| 
 * * * * * * * * * * * * * * * * 




---------------------------------------| 
---------------------------------------| 
---------------------------------------| 
---------------------------------------| 
---------------------------------------| 
-11-0-12-0-14-0-0-0-0-15-0-0-15-0-15-0-| 
  * *  * *  * * * * *  * * *  * *  * * 

---------------------------------------| 
---------------------------------------| 
---------------------------------------| 
---------------------------------------| 
---------------------------------------| 
-11-0-12-0-14-0-0-0-0-15-0-0-15-0-15-0-| 
  * *  * *  * * * * *  * * *  * *  * * 

---------------------------------------| 
---------------------------------------| 
---------------------------------------| 
---------------------------------------| 
---------------------------------------| 
-11-0-12-0-14-0-0-0-0-15-0-0-15-0-15-0-| 
  * *  * *  * * * * *  * * *  * *  * * 

-----------------------------------| 
-----------------------------------| 
-----------------------------------| 
-----------------------------------| 
-----------------------------------| 
-5-0-7-0-8-0-7-0-5-3-2-0-5-0-2-0---| 
 * * * * * * * * * * * * * * * * 



1:46 


---------------------------------------| 
---------------------------------------| 
---------------------------------------| 
---------------------------------------| 
----------------------------------15---| 
-11-0-12-0-14-0-0-0-0-15-0-0-15-15---0-| 
  * *  * *  * * * * *  * * *  *  *   * 

---------------------------------------| 
---------------------------------------| 
---------------------------------------| 
---------------------------------------| 
----------------------------------15---| 
-11-0-12-0-14-0-0-0-0-15-0-0-15-15---0-| 
  * *  * *  * * * * *  * * *  *  *   * 
---------------------------------------| 
---------------------------------------| 
---------------------------------------| 
---------------------------------------| 
----------------------------------15---| 
-11-0-12-0-14-0-0-0-0-15-0-0-15-15---0-| 
  * *  * *  * * * * *  * * *  *  *   * 

-----------------------------------| 
-----------------------------------| 
-----------------------------------| 
-----------------------------------| 
-----------------------------------| 
-5-0-7-0-8-0-7-0-5-3-2-0-5-0-2-0---| 
 * * * * * * * * * * * * * * * * 



1:54 


1 
-10--10--10--10--12--12--12--12--13--13--13--13-----| 
---10--10--10--10--10--10--10--10--10--10--10--10---| 
----------------------------------------------------| 
----------------------------------------------------| 
----------------------------------------------------| 
----------------------------------------------------| 

2 
---------------------------------------------------| 
---------------------------------------------------| 
---------------------------------------------------| 
---------------------------------------------------| 
---------------------------------------------------| 
-0-0-0-0-0-0-0-0-2-2-2-2-2-2-2-2-3-3-3-3-3-3-3-3-3-| 
 * * * * * * * * * * * * * * * * * * * * * * * * * 


1 
-12--12--12--12--10--10--10--10--9--9--9--9-------| 
---10--10--10--10--10--10--10--10-10-10-10--10----| 
--------------------------------------------------| 
--------------------------------------------------| 
--------------------------------------------------| 
--------------------------------------------------| 

2 
----------------------------------------------------------| 
----------------------------------------------------------| 
----------------------------------------------------------| 
----------------------------------------------------------| 
----------------------------------------------------------| 
-8-8-8-8-8-8-8-8-7-7-7-7-7-7-7-7-11-11-11-11-11-11-11-11--| 
 * * * * * * * * * * * * * * * *  *  *  *  *  *  *  *  * 


1 
-10--10--10--10--12--12--12--12--13--13--13--13-----| 
---10--10--10--10--10--10--10--10--10--10--10--10---| 
----------------------------------------------------| 
----------------------------------------------------| 
----------------------------------------------------| 
----------------------------------------------------| 


2 
---------------------------------------------------| 
---------------------------------------------------| 
---------------------------------------------------| 
---------------------------------------------------| 
---------------------------------------------------| 
-0-0-0-0-0-0-0-0-2-2-2-2-2-2-2-2-3-3-3-3-3-3-3-3-3-| 
 * * * * * * * * * * * * * * * * * * * * * * * * * 

1 
-15--15--15--15--12--12--12--12--9--9--9--9--------| 
---10--10--10--10--10--10--10--10-10-10-10-10------| 
---------------------------------------------------| 
---------------------------------------------------| 
---------------------------------------------------| 
---------------------------------------------------| 
2 
--------------------------------------------| 
--------------------------------------------| 
----------------------------------6--7--9---| 
----------------------------------x--x--x---| 
----------------------------------4--5--7---| 
-8-8-8-8-8-8-5-5-7-7-7-7-7-7-7-7------------| 
 * * * * * * * * * * * * * * * * 





2:07 

---------------------------------------| 
---------------------------------------| 
---------------------------------------| 
---------------------------------------| 
---------------------------------------| 
-000000000000222222222222333333333333--| 


w/slight overdub of same notes on 4th string 
---------------------------------------------------| 
---------------------------------------------------| 
---------------------------------------------------| 
---------------------------------------------------| 
---------------------------------------------------| 
-888888888888777777777777111111111111111111111111--| 


---------------------------------------| 
---------------------------------------| 
---------------------------------------| 
---------------------------------------| 
---------------------------------------| 
-000000000000222222222222333333333333--| 


--------------------------------------| 
--------------------------------------| 
--------------------------------------| 
--------------------------------------| 
--------------------------11--12--13--| 
-888888888855777777777777-11--12--13--| 





2:19 

1 
----------------------------------------------------------------------| 
----------------------------------------------------------------------| 
----------------------------------------------------------------------| 
15-15-15-15-------14-14-14-14-----------------------------------------| 
12-12-12-12-------12-12-12-12-------15-15-15-15-------13-13-13-13-----| 
12-12-12-12-1212--12-12-12-12-1212--12-12-12-12-1212--12-12-12-12-1212| 
             * *               * *               * *               * * 

-----------------------------------------------------------------------| 
-----------------------------------------------------------------------| 
-----------------------------------------------------------------------| 
15-15-15-15-------14-14-14-14------------------------------------------| 
12-12-12-12-------12-12-12-12-------15-15-15-15-------13-13-13-13-13-13| 
12-12-12-12-1212--12-12-12-12-1212--12-12-12-12-1212--12-12-12-12-12-12| 
             * *               * *               * * 


1 
----------------------------------------------------------------------| 
----------------------------------------------------------------------| 
14-14-14-14-------13-13-13-13-----------------------------------------| 
15-15-15-15-------14-14-14-14-----------------------------------------| 
12-12-12-12-------12-12-12-12-------15-15-15-15-------13-13-13-13-----| 
12-12-12-12-1212--12-12-12-12-1212--12-12-12-12-1212--12-12-12-12-1212| 
             * *               * *               * *               * * 
2 
----------------------------------------------------------------------| 
----------------------------------------------------------------------| 
----------------------------------------------------------------------| 
15-15-15-15-------14-14-14-14-----------------------------------------| 
12-12-12-12-------12-12-12-12-------15-15-15-15-------13-13-13-13-----| 
12-12-12-12-1212--12-12-12-12-1212--12-12-12-12-1212--12-12-12-12-1212| 
             * *               * *               * *               * * 

1 
-----------------------------------------------------------------------| 
-----------------------------------------------------------------------| 
14-14-14-14-------13-13-13-13------------------------------------------| 
15-15-15-15-------14-14-14-14------------------------------------------| 
12-12-12-12-------12-12-12-12-------15-15-15-15-------13-13-13-13-13-13| 
12-12-12-12-1212--12-12-12-12-1212--12-12-12-12-1212--12-12-12-12-12-12| 
             * *               * *               * * 
2 
-----------------------------------------------------------------------| 
-----------------------------------------------------------------------| 
-----------------------------------------------------------------------| 
15-15-15-15-------14-14-14-14------------------------------------------| 
12-12-12-12-------12-12-12-12-------15-15-15-15-------13-13-13-13-13-13| 
12-12-12-12-1212--12-12-12-12-1212--12-12-12-12-1212--12-12-12-12-12-12| 
             * *               * *               * * 




2:31 

---------------------------------------| 
---------------------------------------| 
---------------------------------------| 
---------------------------------------| 
---------------------------------------| 
-11-0-12-0-14-0-0-0-0-15-0-0-15-0-15-0-| 
  * *  * *  * * * * *  * * *  * *  * * 

---------------------------------------| 
---------------------------------------| 
---------------------------------------| 
---------------------------------------| 
---------------------------------------| 
-11-0-12-0-14-0-0-0-0-15-0-0-15-0-15-0-| 
  * *  * *  * * * * *  * * *  * *  * * 

---------------------------------------| 
---------------------------------------| 
---------------------------------------| 
---------------------------------------| 
---------------------------------------| 
-11-0-12-0-14-0-0-0-0-15-0-0-15-0-15-0-| 
  * *  * *  * * * * *  * * *  * *  * * 

-----------------------------------| 
-----------------------------------| 
-----------------------------------| 
-----------------------------------| 
-----------------------------------| 
-5-0-7-0-8-0-7-0-5-3-2-0-5-0-2-0---| 
 * * * * * * * * * * * * * * * * 


---------------------------------------| 
---------------------------------------| 
---------------------------------------| 
---------------------------------------| 
---------------------------------------| 
-11-0-12-0-14-0-0-0-0-15-0-0-15-0-15-0-| 
  * *  * *  * * * * *  * * *  * *  * * 

---------------------------------------| 
---------------------------------------| 
---------------------------------------| 
---------------------------------------| 
---------------------------------------| 
-11-0-12-0-14-0-0-0-0-15-0-0-15-0-15-0-| 
  * *  * *  * * * * *  * * *  * *  * * 

---------------------------------------| 
---------------------------------------| 
---------------------------------------| 
---------------------------------------| 
---------------------------------------| 
-11-0-12-0-14-0-0-0-0-15-0-0-15-0-15-0-| 
  * *  * *  * * * * *  * * *  * *  * * 

-----------------------------------| 
-----------------------------------| 
-----------------------------------| 
-----------------------------------| 
-----------------------------------| 
-5-0-7-0-8-0-7-0-5-3-2-0-5-0-2-0---| 
 * * * * * * * * * * * * * * * * 





---------------------------------------| 
---------------------------------------| 
---------------------------------------| 
---------------------------------------| 
----------------------------------15---| 
-11-0-12-0-14-0-0-0-0-15-0-0-15-15---0-| 
  * *  * *  * * * * *  * * *  *  *   * 

---------------------------------------| 
---------------------------------------| 
---------------------------------------| 
---------------------------------------| 
----------------------------------15---| 
-11-0-12-0-14-0-0-0-0-15-0-0-15-15---0-| 
  * *  * *  * * * * *  * * *  *  *   * 
---------------------------------------| 
---------------------------------------| 
---------------------------------------| 
---------------------------------------| 
----------------------------------15---| 
-11-0-12-0-14-0-0-0-0-15-0-0-15-15---0-| 
  * *  * *  * * * * *  * * *  *  *   * 

-----------------------------------| 
-----------------------------------| 
-----------------------------------| 
-----------------------------------| 
-----------------------------------| 
-5-0-7-0-8-0-7-0-5-3-2-0-5-0-2-0---| 
 * * * * * * * * * * * * * * * * 



2:55 

1 
-10--10--10--10--12--12--12--12--13--13--13--13-----| 
---10--10--10--10--10--10--10--10--10--10--10--10---| 
----------------------------------------------------| 
----------------------------------------------------| 
----------------------------------------------------| 
----------------------------------------------------| 

2 
---------------------------------------------------| 
---------------------------------------------------| 
---------------------------------------------------| 
---------------------------------------------------| 
---------------------------------------------------| 
-0-0-0-0-0-0-0-0-2-2-2-2-2-2-2-2-3-3-3-3-3-3-3-3-3-| 
 * * * * * * * * * * * * * * * * * * * * * * * * * 


1 
-12--12--12--12--10--10--10--10--9--9--9--9-------| 
---10--10--10--10--10--10--10--10-10-10-10--10----| 
--------------------------------------------------| 
--------------------------------------------------| 
--------------------------------------------------| 
--------------------------------------------------| 

2 
----------------------------------------------------------| 
----------------------------------------------------------| 
----------------------------------------------------------| 
----------------------------------------------------------| 
----------------------------------------------------------| 
-8-8-8-8-8-8-8-8-7-7-7-7-7-7-7-7-11-11-11-11-11-11-11-11--| 
 * * * * * * * * * * * * * * * *  *  *  *  *  *  *  *  * 


1 
-10--10--10--10--12--12--12--12--13--13--13--13-----| 
---10--10--10--10--10--10--10--10--10--10--10--10---| 
----------------------------------------------------| 
----------------------------------------------------| 
----------------------------------------------------| 
----------------------------------------------------| 


2 
---------------------------------------------------| 
---------------------------------------------------| 
---------------------------------------------------| 
---------------------------------------------------| 
---------------------------------------------------| 
-0-0-0-0-0-0-0-0-2-2-2-2-2-2-2-2-3-3-3-3-3-3-3-3-3-| 
 * * * * * * * * * * * * * * * * * * * * * * * * * 

1 
-15--15--15--15--12--12--12--12--9--9--9--9--------| 
---10--10--10--10--10--10--10--10-10-10-10-10------| 
---------------------------------------------------| 
---------------------------------------------------| 
---------------------------------------------------| 
---------------------------------------------------| 
2 
--------------------------------------------| 
--------------------------------------------| 
----------------------------------6--7--9---| 
----------------------------------x--x--x---| 
----------------------------------4--5--7---| 
-8-8-8-8-8-8-5-5-7-7-7-7-7-7-7-7------------| 
 * * * * * * * * * * * * * * * * 



3:06 

---------------------------------------| 
---------------------------------------| 
---------------------------------------| 
---------------------------------------| 
---------------------------------------| 
-000000000000222222222222333333333333--| 


w/slight overdub of same notes on 4th string 
---------------------------------------------------| 
---------------------------------------------------| 
---------------------------------------------------| 
---------------------------------------------------| 
---------------------------------------------------| 
-888888888888777777777777111111111111111111111111--| 


---------------------------------------| 
---------------------------------------| 
---------------------------------------| 
---------------------------------------| 
---------------------------------------| 
-000000000000222222222222333333333333--| 


--------------------------------------| 
--------------------------------------| 
--------------------------------------| 
--------------------------------------| 
--------------------------11--12--13--| 
-888888888855777777777777-11--12--13--| 




3:19 

---------------------------------------------------| 
---------------------------------------------------| 
---------------------------------------------------| 
---------------------------------------------------| 
---------------------------------------------------| 
-0-0-0-0-0-0-0-0-2-2-2-2-2-2-2-2-3-3-3-3-3-3-3-3-3-| 
 * * * * * * * * * * * * * * * * * * * * * * * * * 

----------------------------------------------------------| 
----------------------------------------------------------| 
----------------------------------------------------------| 
----------------------------------------------------------| 
----------------------------------------------------------| 
-8-8-8-8-8-8-8-8-7-7-7-7-7-7-7-7-11-11-11-11-11-11-11-11--| 
 * * * * * * * * * * * * * * * *  *  *  *  *  *  *  *  * 

---------------------------------------------------| 
---------------------------------------------------| 
---------------------------------------------------| 
---------------------------------------------------| 
---------------------------------------------------| 
-0-0-0-0-0-0-0-0-2-2-2-2-2-2-2-2-3-3-3-3-3-3-3-3-3-| 
 * * * * * * * * * * * * * * * * * * * * * * * * * 

--------------------------------------------| 
--------------------------------------------| 
----------------------------------6--7--9---| 
----------------------------------x--x--x---| 
----------------------------------4--5--7---| 
-8-8-8-8-8-8-5-5-7-7-7-7-7-7-7-7------------| 
 * * * * * * * * * * * * * * * * 



3:31 

1 
-----------------------------------------------------------| 
-----------------------------------------------------------| 
-----------------------------------------------------------| 
-----------------------------------------------------------| 
-----------------------------------------------------------| 
-2-0-0-0-2-0-0-0-2-0-0-0-2-0-0-0-3-0-0-0-3-0-0-3-0-0-3-0-0-| 

2 
-----------------------------------------------------------| 
-----------------------------------------------------------| 
-----------------------------------------------------------| 
-----------------------------------------------------------| 
-----------------------------------------------------------| 
0---------------------------------3200---------------------| 
                                  **** 

1 
-----------------------------------------------------------| 
-----------------------------------------------------------| 
-----------------------------------------------------------| 
-----------------------------------------------------------| 
-----------------------------------------------------------| 
-2-0-0-0-2-0-0-0-2-0-0-0-2-0-0-0-3-0-0-0-3-0-0-3-0-0-3-0-0-| 

2 
-----------------------------------------------------------| 
-----------------------------------------------------------| 
-----------------------------------------------------------| 
-----------------------------------------------------------| 
-----------------------------------------------------------| 
-3200----------------------------3200----------------------| 
 ****                            **** 

1 
-------------------------------------------------------------| 
-------------------------------------------------------------| 
-------------------------------------------------------------| 
-------------------------------------------------------------| 
-------------------------------------------------------------| 
-2-0-0-0-2-0-0-0-2-0-0-0-2-0-0-0-3-0-0-0-3-0-0-3-0-0-3-0-0---| 

2 
-----------------------------------------------------------| 
-----------------------------------------------------------| 
-----------------------------------------------------------| 
-----------------------------------------------------------| 
-----------------------------------------------------------| 
-3200-------------3200----3200----3200--------3200----3200-| 
 ****             ****    ****    ****        ****    **** 



1 
----------------------------------------| 
----------------------------------------| 
----------------------------------------| 
----------------------------------------| 
----------------------------------\-----| 
-2-0-0-0-2-0-0-0-2-0-0-0-2-0-0-0--\-----| 
                             * * 
2 
-----------------------------------------| 
-----------------------------------------| 
-----------------------------------------| 
-----------------------------------------| 
-----------------------------------\-----| 
-3200-------------3200-------0-0---\-----| 
 ****             ****       * * 




3:47 

-------------------------------------------------------------------------| 
-------------------------------------------------------------------------| 
-------------------------------------------------------------------------| 
-------------------------------------------------------------------------| 
---^--------^--------^--------^-------^---------^--------^--------^------| 
-12-15-00-12-15-00-12-15-00-12-15-00-11-14-00-11-14-00-11-14-00-14-11-00-| 
       **       **       **       **       **       **       **       ** 

-------------------------------------------------------------------------| 
-------------------------------------------------------------------------| 
-------------------------------------------------------------------------| 
-------------------------------------------------------------------------| 
---^--------^--------^--------^--------^--------^--------^--------^------| 
-12-15-00-12-15-00-12-15-00-12-15-00-11-14-00-11-14-00-11-14-00-14-11-00-| 
       **       **       **       **       **       **       **       ** 

---------------------------------------------------| 
---------------------------------------------------| 
---------------------------------------------------| 
---------------------------------------------------| 
--^------^------^------^------^------^------^------| 
-5-8-00-5-8-00-5-8-00-4-7-00-4-7-00-4-7-00-4-7-00--| 
     **     **     **     **     **     **     ** 

---------------------------------------------------| 
---------------------------------------------------| 
---------------------------------------------------| 
---------------------------------------------------| 
--^------^------^------^------^------^------^------| 
-5-8-00-5-8-00-5-8-00-4-7-00-4-7-00-4-7-00-4-7-00--| 
     **     **     **     **     **     **     ** 



4:02 


-----------------------------------------------------------------| 
-----------------------------------------------------------------| 
-----------------------------------------------------------------| 
-----------------------------------------------------------------| 
-----3-------3-------3-------3-------5-------5-------5-------5---| 
-2-3---3-2-3---3-2-3---3-2-3---3-2-3---3-2-3---3-2-3---3-2-3---3-| 

-----------------------------------------------------------------| 
-----------------------------------------------------------------| 
-----------------------------------------------------------------| 
-----------------------------------------------------------------| 
-----3-------3-------3-------3-------5-------5-------5-------5---| 
-2-3---3-2-3---3-2-3---3-2-3---3-2-3---3-2-3---3-2-3---3-2-3---3-| 


-----------------------------------------------------------------| 
-----------------------------------------------------------------| 
-----------------------------------------------------------------| 
-----------------------------------------------------------------| 
-----3-------3-------3-------3-------5-------5-------5-------5---| 
-2-3---3-2-3---3-2-3---3-2-3---3-2-3---3-2-3---3-2-3---3-2-3---3-| 
 * *   * * *   * * *   * * *   * * *   * * *   * * *   * * *   * 

-----------------------------------------------------------------| 
-----------------------------------------------------------------| 
-----------------------------------------------------------------| 
-----------------------------------------------------------------| 
-----3-------3-------3-------3-------5-------5-------5-------5---| 
-2-3---3-2-3---3-2-3---3-2-3---3-2-3---3-2-3---3-2-3---3-2-3---3-| 
 * *   * * *   * * *   * * *   * * *   * * *   * * *   * * *   * 




4:20 

---------------------------------------| 
---------------------------------------| 
---------------------------------------| 
---------------------------------------| 
---------------------------------------| 
-000000000000222222222222333333333333--| 


w/slight overdub of same notes on 4th string 
---------------------------------------------------| 
---------------------------------------------------| 
---------------------------------------------------| 
---------------------------------------------------| 
---------------------------------------------------| 
-888888888888777777777777111111111111111111111111--| 


---------------------------------------| 
---------------------------------------| 
---------------------------------------| 
---------------------------------------| 
---------------------------------------| 
-000000000000222222222222333333333333--| 


--------------------------------------| 
--------------------------------------| 
--------------------------------------| 
--------------------------------------| 
--------------------------11--12--13--| 
-888888888855777777777777-11--12--13--| 




4:29 


1                                       ^ 
---^----------------------------------12-13-12-10-12-10-12/--| 
-10-11-10-8-10--------^--------------------------------------| 
---------------9-9-9-7-9-10-9-7/9-9-9------------------------| 
-------------------------------------------------------------| 
-------------------------------------------------------------| 
-------------------------------------------------------------| 

2 
----------------------------------------------------| 
----------------------------------------------------| 
----------------------------------------------------| 
----------------------------------------------------| 
-0---0---0---0---0---2---2---2---2---3---3---3---3--| 
-0---0---0---0---0---2---2---2---2---3---3---3---3--| 


1  ^                        _ 
-17-18-17-15---------------/ \-------------------------------------------| 
-------------18-17-15-14-14-15-14--14---------------^--------------------| 
---------------------------------15---15-14-14\12-12-14-14-14-14-14-14\--| 
-------------------------------------------------------------------------| 
-------------------------------------------------------------------------| 
-------------------------------------------------------------------------| 

2 
------------------------------------------------------| 
------------------------------------------------------| 
------------------------------------------------------| 
------------------------------------------------------| 
-8---8---8---8---7---7---7---7---11---11---11---11----| 
-8---8---8---8---7---7---7---7---11---11---11---11----| 




1 
--------------------------------------12-13-12-10-12-10-12/--| 
-10-11-10-8-10--------^--------------------------------------| 
---------------9-9-9-7-9-10-9-7/9-9-9------------------------| 
-------------------------------------------------------------| 
-------------------------------------------------------------| 
-------------------------------------------------------------| 

2 
----------------------------------------------------| 
----------------------------------------------------| 
----------------------------------------------------| 
----------------------------------------------------| 
-0---0---0---0---0---2---2---2---2---3---3---3---3--| 
-0---0---0---0---0---2---2---2---2---3---3---3---3--| 





1 
-17-18-17-15------------------/17-----------------------| 
-------------18-17-15--/17--------15---14--15--17-15----| 
---------------------------14---------------------------| 
--------------------------------------------------------| 
--------------------------------------------------------| 
--------------------------------------------------------| 

2 
------------------------------------------------------| 
------------------------------------------------------| 
------------------------------------------------------| 
------------------------------------------------0-----| 
-8---8---8---5---7---7---7---7---11---12---13---0-----| 
-8---8---8---5---7---7---7---7---11---12---13---0-----| 

3 
-------------------------------------------------------| 
--------------------------------------------------18---| 
-------------------------------------------------------| 
-------------------------------------------------------| 
-------------------------------------------------------| 
-------------------------------------------------------| 
	  

No existe una video leccione para esta canción

request
LosAcordes
Buscar
auto avanzar rasgueos aumentar disminuir cambiar color esconder acordes gráficos
losacordes exhibir acordes losacordes youTube video losacordes ocultar tabs losacordes ir hacia arriba losacordes