Devildriver

Início > Devildrive... > acordes

Burning Sermon Tablatura

Devildriver

Dificultad:Ningún gradoNingún grado

tercmoraes

tuner correct add songbook print version text version salvar en e-mail
acordesukuleletablaturabajobateríaarmónicaflautacavacopiano Guitar Pro
acordes

Burning Sermon

	  DEVILDRIVER 

BURNING SERMON 

C-G-C-F-A-D 

TABBED BY andherembrace 






SEMI BENDS 

---------------------------------------------| 
---------------------------------------------| 
---------------------------------------------| 
---------------------------------------------| 
---------------)---)-----------------)---)---| 
-000000-1-0-0-1-0-1-0--000000-1-0-0-3-0-3-0--| 
 ******     *   *      ******     *   * 

------------------------------------------------------| 
------------------------------------------------------| 
------------------------------------------------------| 
------------------------------------------------------| 
---------------)---)----------9-9--------------10-10--| 
-000000-1-0-0-1-0-1-0--999999-9-9-101010101010-10-10--| 
 ******     *   *      ******      * * * * * *  



---------------------------------------------| 
---------------------------------------------| 
---------------------------------------------| 
---------------------------------------------| 
---------------)---)-----------------)---)---| 
-000000-1-0-0-1-0-1-0--000000-1-0-0-3-0-3-0--| 
 ******     *   *      ******     *   * 

------------------------------------------------------| 
------------------------------------------------------| 
------------------------------------------------------| 
------------------------------------------------------| 
---------------)---)----------9-9--------------10-10--| 
-000000-1-0-0-1-0-1-0--999999-9-9-101010101010-10-10--| 
 ******     *   *      ******      * * * * * *  




0:15 


1 W/WAH 
--------------------------------------------------| 
--------------------------------------------------| 
--------------------------------------------------| 
-000000111000000110111000000000111000000330333000-| 
--------------------------------------------------| 
--------------------------------------------------| 

2 
--------------------------------------------------| 
--------------------------------------------------| 
--------------------------------------------------| 
--------------------------------------------------| 
---------------)---)-------------------)---)------| 
-000000-1-0---1-0-1-0----000000-1-0---3-0-3-0-----| 



1 
-------------------------------------------------------| 
-------------------------------------------------------| 
-------------------------------------------------------| 
000000111000000110111000-------------------------------| 
--------------------------------9-9--------------10-10-| 
-------------------------999999-9-9-101010101010-10-10-| 
                         ******      * * * * * * 
2 
-------------------------------------------------------| 
-------------------------------------------------------| 
-------------------------------------------------------| 
-------------------------------------------------------| 
----------------)---)-----------9-9--------------10-10-| 
-000000-1-0----1-0-1-0---999999-9-9-101010101010-10-10-| 
 ******                  ******      * * * * * *  


----------------------------------------------------------------| 
----------------------------------------------------------------| 
----------------------------------------------------------------| 
----------------------------------------------------------------| 
----------------------------------------------------------------| 
-00-0-0-00-00-0-0-0-3-3-6-5-0-00-0-0-00-00-0-0-0-15-15-18-17-12-| 
    *   **    *   *              *   **    *   * 

--------------------------------------------------------------------| 
--------------------------------------------------------------------| 
--------------------------------------------------------------------| 
--------------------------------------------------------------------| 
--------------------------------------------------------------------| 
00-0-0-00-00-0-0-0-3-3-6-5-0-15-18-17-12-14-17-16-12-4-7-6-0-3-6-5-0| 
   *   **    *   *               




0:29 

----------------------------------------------------------------| 
----------------------------------------------------------------| 
----------------------------------------------------------------| 
----------------------------------------------------------------| 
----------------------------------------------------------------| 
-00-0-0-00-00-0-0-0-3-3-6-5-0-00-0-0-00-00-0-0-0-15-15-18-17-12-| 
    *   **    *   *              *   **    *   * 

----------------------------------------------------------------| 
----------------------------------------------------------------| 
----------------------------------------------------------------| 
----------------------------------------------------------------| 
------------------------------------------3-3---------------4-4-| 
00-0-0-00-00-0-0-0-3-3-6-5-0-11-11-11-7-6-3-3--12-12-12-8-7-4-4-| 
   *   **    *   *            *  *  * * *       *  *  * * *       


----------------------------------------------------------------| 
----------------------------------------------------------------| 
----------------------------------------------------------------| 
----------------------------------------------------------------| 
----------------------------------------------------------------| 
-00-0-0-00-00-0-0-0-3-3-6-5-0-00-0-0-00-00-0-0-0-15-15-18-17-12-| 
    *   **    *   *              *   **    *   * 

----------------------------------------------------------------| 
----------------------------------------------------------------| 
----------------------------------------------------------------| 
----------------------------------------------------------------| 
------------------------------------------3-3---------------4-4-| 
00-0-0-00-00-0-0-0-3-3-6-5-0-11-11-11-7-6-3-3--12-12-12-8-7-4-4-| 
   *   **    *   *            *  *  * * *       *  *  * * *       


----------------------------------------------------------------| 
----------------------------------------------------------------| 
----------------------------------------------------------------| 
----------------------------------------------------------------| 
----------------------------------------------------------------| 
-00-0-0-00-00-0-0-0-3-3-6-5-0-00-0-0-00-00-0-0-0-15-15-18-17-12-| 
    *   **    *   *              *   **    *   * 

--------------------------------------------------------------------| 
--------------------------------------------------------------------| 
--------------------------------------------------------------------| 
--------------------------------------------------------------------| 
--------------------------------------------------------------------| 
00-0-0-00-00-0-0-0-3-3-6-5-0-15-18-17-12-14-17-16-12-4-7-6-0-3-6-5-0| 
   *   **    *   *               




0:52 

------------------------------------------------------------| 
------------------------------------------------------------| 
-77---7----77---7-------------66---6----66---6--------------| 
-xx---x----xx---x-------------xx---x----xx---x--------------| 
-55---5----55---5-------------44---4----44---4--------------| 
----0---00----0---0-4-4-7-6-0----0---00----0---0-3-3-6-5-0--| 
    *   **    *   *              *   **    *   *           

--------------------------------------------------------------| 
--------------------------------------------------------------| 
-77---7----77---7---------------------------------------------| 
-xx---x----xx---x-------------7-7-7-7---------5-5-5-5---------| 
-55---5----55---5-------------5-5-5-5-3-3-3-3-3-3-3-3-4-4-4-4-| 
----0---00----0---0-4-4-7-6-0---------3-3-3-3---------4-4-4-4-| 
    *   **    *   *                           

------------------------------------------------------------| 
------------------------------------------------------------| 
-77---7----77---7-------------66---6----66---6--------------| 
-xx---x----xx---x-------------xx---x----xx---x--------------| 
-55---5----55---5-------------44---4----44---4--------------| 
----0---00----0---0-4-4-7-6-0----0---00----0---0-3-3-6-5-0--| 
    *   **    *   *              *   **    *   *          

--------------------------------------------------------------| 
--------------------------------------------------------------| 
-77---7----77---7---------------------------------------------| 
-xx---x----xx---x-------------7-7-7-7---------5-5-5-5---------| 
-55---5----55---5-------------5-5-5-5-3-3-3-3-3-3-3-3-4-4-4-4-| 
----0---00----0---0-4-4-7-6-0---------3-3-3-3---------4-4-4-4-| 
    *   **    *   *                           


1:08 

----------------------------------------| 
----------------------------------------| 
----------------------------------------| 
----------------------------------------| 
-------------)(-0-0-------------)(-0-0--| 
-333333-2-2-3---0-0-333333-2-2-3---0-0--| 

----------------------------------------| 
----------------------------------------| 
----------------------------------------| 
----------------------------------------| 
-------------)(-0-0-------------)(-0-0--| 
-333333-2-2-3---0-0-333333-2-2-3---0-0--| 




1:16 

---------------------------------------------| 
---------------------------------------------| 
---------------------------------------------| 
---------------------------------------------| 
---------------)---)-----------------)---)---| 
-000000-1-0-0-1-0-1-0--000000-1-0-0-3-0-3-0--| 
 ******     *   *      ******     *   * 

------------------------------------------------------| 
------------------------------------------------------| 
------------------------------------------------------| 
------------------------------------------------------| 
---------------)---)----------9-9--------------10-10--| 
-000000-1-0-0-1-0-1-0--999999-9-9-101010101010-10-10--| 
 ******     *   *      ******      * * * * * *  


1 
--------------------------------------------------| 
--------------------------------------------------| 
--------------------------------------------------| 
-000000111000000110111000000000111000000330333000-| 
--------------------------------------------------| 
--------------------------------------------------| 

2 
--------------------------------------------------| 
--------------------------------------------------| 
--------------------------------------------------| 
--------------------------------------------------| 
---------------)---)-------------------)---)------| 
-000000-1-0---1-0-1-0----000000-1-0---3-0-3-0-----| 



1 
-------------------------------------------------------| 
-------------------------------------------------------| 
-------------------------------------------------------| 
000000111000000110111000-------------------------------| 
--------------------------------9-9--------------10-10-| 
-------------------------999999-9-9-101010101010-10-10-| 
                         ******      * * * * * * 
2 
-------------------------------------------------------| 
-------------------------------------------------------| 
-------------------------------------------------------| 
-------------------------------------------------------| 
----------------)---)-----------9-9--------------10-10-| 
-000000-1-0----1-0-1-0---999999-9-9-101010101010-10-10-| 
 ******                  ******      * * * * * *  


1:30 

----------------------------------------------------------------| 
----------------------------------------------------------------| 
----------------------------------------------------------------| 
----------------------------------------------------------------| 
----------------------------------------------------------------| 
-00-0-0-00-00-0-0-0-3-3-6-5-0-00-0-0-00-00-0-0-0-15-15-18-17-12-| 
    *   **    *   *              *   **    *   * 



----------------------------------------------------------------| 
----------------------------------------------------------------| 
----------------------------------------------------------------| 
----------------------------------------------------------------| 
------------------------------------------3-3---------------4-4-| 
00-0-0-00-00-0-0-0-3-3-6-5-0-11-11-11-7-6-3-3--12-12-12-8-7-4-4-| 
   *   **    *   *            *  *  * * *       *  *  * * *       


----------------------------------------------------------------| 
----------------------------------------------------------------| 
----------------------------------------------------------------| 
----------------------------------------------------------------| 
----------------------------------------------------------------| 
-00-0-0-00-00-0-0-0-3-3-6-5-0-00-0-0-00-00-0-0-0-15-15-18-17-12-| 
    *   **    *   *              *   **    *   * 

--------------------------------------------------------------------| 
--------------------------------------------------------------------| 
--------------------------------------------------------------------| 
--------------------------------------------------------------------| 
--------------------------------------------------------------------| 
00-0-0-00-00-0-0-0-3-3-6-5-0-15-18-17-12-14-17-16-12-4-7-6-0-3-6-5-0| 
   *   **    *   *               




1:45 

------------------------------------------------------------| 
------------------------------------------------------------| 
-77---7----77---7-------------66---6----66---6--------------| 
-xx---x----xx---x-------------xx---x----xx---x--------------| 
-55---5----55---5-------------44---4----44---4--------------| 
----0---00----0---0-4-4-7-6-0----0---00----0---0-3-3-6-5-0--| 
    *   **    *   *              *   **    *              

--------------------------------------------------------------| 
--------------------------------------------------------------| 
-77---7----77---7---------------------------------------------| 
-xx---x----xx---x-------------7-7-7-7---------5-5-5-5---------| 
-55---5----55---5-------------5-5-5-5-3-3-3-3-3-3-3-3-4-4-4-4-| 
----0---00----0---0-4-4-7-6-0---------3-3-3-3---------4-4-4-4-| 
    *   **    *   *                           

------------------------------------------------------------| 
------------------------------------------------------------| 
-77---7----77---7-------------66---6----66---6--------------| 
-xx---x----xx---x-------------xx---x----xx---x--------------| 
-55---5----55---5-------------44---4----44---4--------------| 
----0---00----0---0-4-4-7-6-0----0---00----0---0-3-3-6-5-0--| 
    *   **    *   *              *   **    *              

--------------------------------------------------------------| 
--------------------------------------------------------------| 
-77---7----77---7---------------------------------------------| 
-xx---x----xx---x-------------7-7-7-7---------5-5-5-5---------| 
-55---5----55---5-------------5-5-5-5-3-3-3-3-3-3-3-3-4-4-4-4-| 
----0---00----0---0-4-4-7-6-0---------3-3-3-3---------4-4-4-4-| 
    *   **    *   *                           


2:01 

----------------------------------------| 
----------------------------------------| 
----------------------------------------| 
----------------------------------------| 
-------------)(-0-0-------------)(-0-0--| 
-333333-2-2-3---0-0-333333-2-2-3---0-0--| 

----------------------------------------| 
----------------------------------------| 
----------------------------------------| 
----------------------------------------| 
-------------)(-0-0-------------)(-0-0--| 
-333333-2-2-3---0-0-333333-2-2-3---0-0--| 




---------------------------------------------| 
---------------------------------------------| 
---------------------------------------------| 
---------------------------------------------| 
---------------)---)-----------------)---)---| 
-000000-1-0-0-1-0-1-0--000000-1-0-0-3-0-3-0--| 
 ******     *   *      ******     *   * 

------------------------------------------------------| 
------------------------------------------------------| 
------------------------------------------------------| 
------------------------------------------------------| 
---------------)---)----------9-9--------------10-10--| 
-000000-1-0-0-1-0-1-0--999999-9-9-101010101010-10-10--| 
 ******     *   *      ******      * * * * * *  


1 
--------------------------------------------------| 
--------------------------------------------------| 
--------------------------------------------------| 
-000000111000000110111000000000111000000330333000-| 
--------------------------------------------------| 
--------------------------------------------------| 

2 
--------------------------------------------------| 
--------------------------------------------------| 
--------------------------------------------------| 
--------------------------------------------------| 
---------------)---)-------------------)---)------| 
-000000-1-0---1-0-1-0----000000-1-0---3-0-3-0-----| 



1 
-------------------------------------------------------| 
-------------------------------------------------------| 
-------------------------------------------------------| 
000000111000000110111000-------------------------------| 
--------------------------------9-9--------------10-10-| 
-------------------------999999-9-9-101010101010-10-10-| 
                         ******      * * * * * * 
2 
-------------------------------------------------------| 
-------------------------------------------------------| 
-------------------------------------------------------| 
-------------------------------------------------------| 
----------------)---)-----------9-9--------------10-10-| 
-000000-1-0----1-0-1-0---999999-9-9-101010101010-10-10-| 
 ******                  ******      * * * * * *  



2:24 


-----------------------------------------| 
-----------------------------------------| 
-----------------------------------------| 
-10-----12-----13-----12-----10----------| 
-----------------------------------------| 
---12-10--10-10--12-10--10-12--12-10-12--| 
    *  *   *  *   *  *   *  *   *  *  *     


-----------------------------------------| 
-----------------------------------------| 
-----------------------------------------| 
-10-----12-----13-----12-----10----------| 
-----------------------------------------| 
---12-10--10-10--12-10--10-12--12-10-12--| 
    *  *   *  *   *  *   *  *   *  *  *   

-----------------------------------------| 
-----------------------------------------| 
-----------------------------------------| 
-10-----12-----13-----12-----10----------| 
-----------------------------------------| 
---12-10--10-10--12-10--10-12--12-10-12--| 
    *  *   *  *   *  *   *  *   *  *  *   

L 
-----------------------------------------| 
-----------------------------------------| 
---------------12------------------------| 
-13-----15------------15-----13----------| 
---13-11--11-11--11-11--11-11--13-11-13--| 
-----------------------------------------| 

R 
-------------------------------------| 
-------------------------------------| 
-------------------------------------| 
-------------------------------------| 
-6-----8-----10-----8-----6----------| 
---8-6---6-6----6-6---6-6---8-6-8----| 
   

L 
--------------------------------------| 
--------------------------------------| 
-555555555555-7777-88888888-33333333--| 
-XXXXXXXXXXXX-XXXX-XXXXXXXX-XXXXXXXX--| 
-333333333333-5555-66666666-11111111--| 
--------------------------------------| 

R 
-------------------------------------------------------| 
-88888888999911111111-13131313131313131616161616161515-| 
-XXXXXXXXXXXX-X-X-X-X--X-X-X-X-X-X-X-X-X-X-X-X-X-X-X-X-| 
-555555556666-8-8-8-8-10101010101010101313131313131212-| 
-------------------------------------------------------| 
-------------------------------------------------------| 



2:35 

----------------------------------------------| 
----------------------------------------------| 
----------------------------------------------| 
------P---------P-----------P---------P-------| 
-/5---H----/5---H----/5-----H----/5---H-------| 
----6-5~-0----6-5~-0----6-5-3~-0----6-3~-0----| 


-------------------------------------------------| 
-------------------------------------------------| 
-------------------------------------------------| 
-------7-----------7-----------7-----------7-----| 
-3-----5--6--3-----5--6--3-----5--6--3-----5--6--| 
-3--0-----6--3--0-----6--3--0-----6--3--0-----6--| 
    *           *           *           * 

----------------------------------------------| 
----------------------------------------------| 
----------------------------------------------| 
------P---------P-----------P---------P-------| 
-/5---H----/5---H----/5-----H----/5---H-------| 
----6-5~-0----6-5~-0----6-5-3~-0----6-3~-0----| 


-------------------------------------------------| 
-------------------------------------------------| 
-------------------------------------------------| 
-------7-----------7-----------7-----------7-----| 
-3-----5--6--3-----5--6--3-----5--6--3-----5--6--| 
-3--0-----6--3--0-----6--3--0-----6--3--0-----6--| 
    *           *           *           * 


2:50 

---------------------------------------------| 
---------------------------------------------| 
---------------------------------------------| 
---------------------------------------------| 
---------------)---)-----------------)---)---| 
-000000-1-0-0-1-0-1-0--000000-1-0-0-3-0-3-0--| 
 ******     *   *      ******     *   * 

------------------------------------------------------| 
------------------------------------------------------| 
------------------------------------------------------| 
------------------------------------------------------| 
---------------)---)----------9-9--------------10-10--| 
-000000-1-0-0-1-0-1-0--999999-9-9-101010101010-10-10--| 
 ******     *   *      ******      * * * * * *  



---------------------------------------------| 
---------------------------------------------| 
---------------------------------------------| 
---------------------------------------------| 
---------------)---)-----------------)---)---| 
-000000-1-0-0-1-0-1-0--000000-1-0-0-3-0-3-0--| 
 ******     *   *      ******     *   * 

------------------------------------------------------| 
------------------------------------------------------| 
------------------------------------------------------| 
------------------------------------------------------| 
---------------)---)----------9-9--------------10-10--| 
-000000-1-0-0-1-0-1-0--999999-9-9-101010101010-10-10--| 
 ******     *   *      ******      * * * * * *  


1 
--------------------------------------------------| 
--------------------------------------------------| 
--------------------------------------------------| 
-000000111000000110111000000000111000000330333000-| 
--------------------------------------------------| 
--------------------------------------------------| 

2 
--------------------------------------------------| 
--------------------------------------------------| 
--------------------------------------------------| 
--------------------------------------------------| 
---------------)---)-------------------)---)------| 
-000000-1-0---1-0-1-0----000000-1-0---3-0-3-0-----| 



1 
--------------------------| 
--------------------------| 
--------------------------| 
000000111000000110111000--| 
--------------------------| 
--------------------------| 
                          
2 
-------------------------------------------------------| 
-------------------------------------------------------| 
-------------------------------------------------------| 
-------------------------------------------------------| 
----------------)---)-----------9-9--------------10-10-| 
-000000-1-0----1-0-1-0---999999-9-9-101010101010-10-10-| 
 ******                  ******      * * * * * *  



-----------------------------------------------------| 
-----------------------------------------------------| 
-----------------------------------------------------| 
-----------------------------------------------------| 
-5-5-0--0-5-5-0--0-5-0-5-0--5-5-0--0-5-5-0-----------| 
-0-0-0--0-0-0-0--0-0-0-0-0--0-0-0--0-0-0-0--0-000000-| 
 * * *  * * * *  * * * * *  * * *  * * * *  * ****** 


-----------------------------------------------------| 
-----------------------------------------------------| 
-----------------------------------------------------| 
----------------------------000000------111111-------| 
-5-5-0--0-5-5-0--0-5-0-5----------000000------111111-| 
-0-0-0--0-0-0-0--0-0-0-0-----------------------------| 
 * * *  * * * *  * * * *    ************************ 

-----------------------------------------------------| 
-----------------------------------------------------| 
-----------------------------------------------------| 
-----------------------------------------------------| 
-5-5-0--0-5-5-0--0-5-0-5-0--5-5-0--0-5-5-0-----------| 
-0-0-0--0-0-0-0--0-0-0-0-0--0-0-0--0-0-0-0--0-000000-| 
 * * *  * * * *  * * * * *  * * *  * * * *  * ****** 


-----------------------------------------------------| 
-----------------------------------------------------| 
-----------------------------------------------------| 
---------------------------X-X-X-X-X-X-X-X-X-X-X-X---| 
-5-5-0--0-5-5-0--0-5-0-5---X-X-X-X-X-X-X-X-X-X-X-X---| 
-0-0-0--0-0-0-0--0-0-0-0---X-X-X-X-X-X-X-X-X-X-X-X---| 
 * * *  * * * *  * * * *     

-----------------------------------------------------| 
-----------------------------------------------------| 
-----------------------------------------------------| 
-----------------------------------------------------| 
-5-5-0--0-5-5-0--0-5-0-5-0--5-5-0--0-5-5-0-----------| 
-0-0-0--0-0-0-0--0-0-0-0-0--0-0-0--0-0-0-0--0-000000-| 
 * * *  * * * *  * * * * *  * * *  * * * *  * ****** 


-----------------------------------------------------| 
-----------------------------------------------------| 
-----------------------------------------------------| 
----------------------------000000------111111-------| 
-5-5-0--0-5-5-0--0-5-0-5----------000000------111111-| 
-0-0-0--0-0-0-0--0-0-0-0-----------------------------| 
 * * *  * * * *  * * * *    ************************ 

-----------------------------------------------------| 
-----------------------------------------------------| 
-----------------------------------------------------| 
-----------------------------------------------------| 
-5-5-0--0-5-5-0--0-5-0-5-0--5-5-0--0-5-5-0-----------| 
-0-0-0--0-0-0-0--0-0-0-0-0--0-0-0--0-0-0-0--0-000000-| 
 * * *  * * * *  * * * * *  * * *  * * * *  * ****** 


-----------------------------------------------------| 
-----------------------------------------------------| 
-----------------------------------------------------| 
---------------------------X-X-X-X-X-X-X-X-X-X-X-X---| 
-5-5-0--0-5-5-0--0-5-0-5---X-X-X-X-X-X-X-X-X-X-X-X-0-| 
-0-0-0--0-0-0-0--0-0-0-0---X-X-X-X-X-X-X-X-X-X-X-X-0-| 
 * * *  * * * *  * * * *                           * 
	  

No existe una video leccione para esta canción

request
Aumentar uno tonoAumentar uno tono
Aumentar uno semi-tonoAumentar uno semi-tono
Disminuir uno semi-tonoDisminuir uno semi-tono
Disminuir uno tonoDisminuir uno semi-tono
LosAcordes
Buscar
auto avanzar rasgueos aumentar disminuir cambiar color esconder acordes gráficos
losacordes exhibir acordes losacordes youTube video losacordes ocultar tabs losacordes ir hacia arriba losacordes