Christy Moore

Início > Christy Mo... > acordes

Spancil Hill Tablatura

Christy Moore

Dificultad:Ningún gradoNingún grado

ubirbomfim

tuner correct add songbook print version text version salvar en e-mail
acordesukuleletablaturabajobateríaarmónicaflautacavacopiano Guitar Pro
acordes

Spancil Hill

	  



  Last night as I lay dreamin'.... 
e|3/2-0--0-0--0-------------------0------------------------------------------| 
B|-------0-0----3---0--------0--3--------------------------------------------| 
G|-------2-2----------0--0h2--------2---0h2----------------------------------| 
D|-------2-2------0-------------------0------2-0-----------------------------| 
A|----0-----------------------------0---0--------3--2------------------------| 
E|--------------3-----3------3-----------------------------------------------| 
  Me mind been bent on ramblin'.... 
e|0--0----5--5--7--5--3--0--2--3----5--3--2--0-------------------------------| 
B|---1-------------------1-----0-------0-------3-----------------------------| 
G|-------------------------------0-------------------------------------------| 
D|-----2-----------------------2-------2-------------------------------------| 
A|---0-------0-----0-----0---------------------------------------------------| 
E|---------------------------------------------3-----------------------------| 
  I stepped on board a vision.... 
e|0--0----5--5--7--5--3--0--2--3----5--3--2--0-------------------------------| 
B|---1-------------------1-----0-------0-------3-----------------------------| 
G|-------------------------------0-------------------------------------------| 
D|-----2-----------------------2-------2-------------------------------------| 
A|---0-------0-----0-----0---------------------------------------------------| 
E|---------------------------------------------3-----------------------------| 
  Til I shortly came to anchor.... 
e|3/2-0--0-0--0-------------------0------------------------------------------| 
B|-------0-0----3---0--------0--3--------------------------------------------| 
G|-------2-2----------0--0h2--------2---0h2----------------------------------| 
D|-------2-2------0-------------------0--------------------------------------| 
A|----0-----------------------------0---0------------------------------------| 
E|--------------3-----3------3-----------------------------------------------| 
 
	  

No existe una video leccione para esta canción

request
LosAcordes
Buscar
auto avanzar rasgueos aumentar disminuir cambiar color esconder acordes gráficos
losacordes exhibir acordes losacordes youTube video losacordes ocultar tabs losacordes ir hacia arriba losacordes