Childish Gambino

Início > Childish G... > acordes

3005 Tablatura

Childish Gambino

Dificultad:Ningún gradoNingún grado

tarikike

tuner correct add songbook print version text version salvar en e-mail
acordesukuleletablaturabajobateríaarmónicaflautacavacopiano Guitar Pro
acordes

3005

Tono:  E Más
3005 Key BB
3005 Key CC
3005 Key C#C#
3005 Key DD(Disminuir uno tono)
3005 Key D#D#(Disminuir uno semi-tono)
3005 Key EE(tono original)
3005 Key FF(Aumentar uno semi-tono)
3005 Key F#F#(Aumentar uno tono)
3005 Key GG
3005 Key G#G#
3005 Key AA
3005 Key A#A#
	  
Tabbed by: Zeek Power  

Tuning: Standard  
 
 

Hook/Intro:  
e|-------------------------7---------| 
B|-3---3----5---5----8---8---8-------| 
G|---0---0----0---0----0-------7-----| 
D|-----------------------------------| 
A|-2--------3--------7---------------| 
E|-----------------------------------|  


or you can pluck the strings like:  

e|-----------------------------------| 
B|---3------5-------8----------------| 
G|---0------0-------0----------------| 
D|-----------------------------------| 
A|-2----2--3----3--7-----------------| 
E|-----------------------------------| 

Then the raping part will go:  
G (on third fret)  
C (on third fret)  
Em (on 7th fret)  
C (on third fret)  
{Meaning verse 1 & verse 2}  


Strumming pattern is whatever you like. 
	  

No existe una video leccione para esta canción

request
Aumentar uno tonoAumentar uno tono
Aumentar uno semi-tonoAumentar uno semi-tono
Disminuir uno semi-tonoDisminuir uno semi-tono
Disminuir uno tonoDisminuir uno semi-tono
LosAcordes
Buscar
auto avanzar rasgueos aumentar disminuir cambiar color esconder acordes gráficos
losacordes exhibir acordes losacordes youTube video losacordes ocultar tabs losacordes ir hacia arriba losacordes