Black Keys

Início > Black Keys > acordes

I Cry Alone Tablatura

Black Keys

Dificultad:Ningún gradoNingún grado

victborges

tuner correct add songbook print version text version salvar en e-mail
acordesukuleletablaturabajobateríaarmónicaflautacavacopiano Guitar Pro
acordes

I Cry Alone

	  
Intro: 

  0:00 

e|-10\8-6-----------------------10\8-6------x-x-----------| 
B|-10\8--------1---1------------10\8-6------x-x-----------| 
G|---------------2----------------------------------------| 
D|----------0----------x-0---------------0--------------0-| 
A|---------------0---3--------------------------0---3-----| 
E|--------------------------------------------------------| 


  0:09 
           my girl       my girl had a hold on me 
e|-x-x----------------------------------------------------| 
B|-x-x----------------------------------1-----------------| 
G|--------------------------------------------------------| 
D|-------------0-x-x------------------0-------0-------x-0-| 
A|-----0---3---------0---3---0------------------0---3-----| 
E|--------------------------------3-----------------------| 
            

  0:19 
           So tight      So tight that I could not see 
e|--------------------------------------------------------| 
B|--------------------------------------------------------| 
G|-----------------------------------------------2--------| 
D|-x-x---------0-x-x---------0---------x-x-------------x--| 
A|-----0---3---------0---3-------3-2-0-------------0------| 
E|-----------------------------------------0---3----------| 


  0:29 
             girl        she had a hold on me   she held so tight that I could not see 
e|---------------x----------------------------------------| 
B|---------------x---------------1------------------------| 
G|-2---2-------------------------2------------------------| 
D|-----------0---------------0---0---------------------0--| 
A|---0---3-----------0---3-----------0--------------------| 
E|---------------------------------------------3----------| 


  0:39 
         my girl       my girl had a hold on me 
e|--------------------------------------------------------| 
B|--------------------------------------1-----------------| 
G|--------------------------------------2-----------------| 
D|-----------0--------------------------0-----0-------x-0-| 
A|---0---3---------0---3---0-----3--------------0---3-----| 
E|--------------------------------------------------------| 


  0:48 
         one day       one day I let her go 
e|--------------------------------------------------------| 
B|--------------------------------------------------------| 
G|--------------------------------------------------------| 
D|-----------0--------------------------0--x-x--------x-0-| 
A|---0---3---------0---3---0--------------------0---3-----| 
E|-------------------------------3------------------------| 


  0:57 
           it hurt           it hurt so, you'd never know 
e|--------------------------------------------------------| 
B|--------------------------------------------------------| 
G|-----------------------------------------------2--------| 
D|-x-x---------0-x-0---------0---------x-x-------------x--| 
A|-----0---3---------0---3-------3---0-------------0------| 
E|-----------------------------------------0---3----------| 


  1:07 
         they had to let her go  it hurt so bad, you cannot know 
e|-----x--------------------------------------------------| 
B|-------------------1------------------------------------| 
G|-2-----------------2------------------------------------| 
D|-------0-----------0-----------------0-x-0---------0----| 
A|---3-------0---3-------0-------x---3-------0---3--------| 
E|-------------------------4-3----------------------------| 


  1:19 
one day       one day I let her go 
e|-x------------------------------------------------------| 
B|-x--------------------1---------------------------------| 
G|----------------------2---------------------------------| 
D|----------------------0-x-x-------x-0-------------------| 
A|-----0----------------------0---3-----------------------| 
E|------------3-------------------------------------------| 


  1:26 

e|--10\8-6------------------------------------------------| 
B|--10\8---------1---------------------------1-----------1| 
G|---------------2---------------------------2-----------2| 
D|-----------x---0-x-x-----------------------0-x-0-------0| 
A|---------------------0---3---0---------3---------0---3--| 
E|-----------------------------------3--------------------| 


  1:36 

e|x-10\8~\6\0----------------------------------------------| 
B|x-10\8~\6\0---------------------------------1------------| 
G|--------------------------------------------2------------| 
D|------------0-x-x-----------x-x---------0---0-x-------x-0| 
A|------------------0---3---0---------3-----------0---3----| 
E|--------------------------------3------------------------| 


  1:46 
           At night       At night I cry alone 
e|---------------------------------------------------------| 
B|-1----------------------------------1-1-----------1------| 
G|-2------------------------------------------------2------| 
D|-0-0---------0------------------------0-x-0-------x-0----| 
A|-----0---3----------0---3---0---------------0---3--------| 
E|----------------------------------3----------------------| 


  1:56 
         I weep        I weep till the early morn'   
e|---------------------------------------------------------| 
B|-------------------------1-------------------------------| 
G|-------------------------2-------------------------2-2-2-| 
D|-----------0--x----------0--x-------------x----------2-2-| 
A|---0---3---------0---3-----------------0-------------0-0-| 
E|-------------------------------0---3---------0---3-------| 


  2:06 
            At night    Lord I cry alone  I weep all night till the early morn'        
e|--------------x--------------------------------------0---| 
B|-----------1--x--------------------------------------1---| 
G|-----------2-----------------------------------------2---| 
D|-----x-----0-----0---------0-x-0---------------------0---| 
A|---3---3-----------0---3---------0---3-------0---3-------| 
E|-----------------------------------------0---------------| 


  2:16 
         At night     At night I cry alone 
e|---------------------x-----------------------------------| 
B|---------------------x-----------1-------------1---------| 
G|---------------------------------2-------------2---------| 
D|---------x-0-x-x-----------------0-x-x-------x-0---------| 
A|---0---3---------0-------0-------------0---3-------------| 
E|-----------------------------3---------------------------| 


  2:25 

e|--10\8-6-------------------------------------------------| 
B|--10\8-6-----1--1---------------------------1---------1--| 
G|----------0-----2---------------------------2---------2--| 
D|----------------0-------------x-x-------x-0-0-0-------0--| 
A|--------------------0---3---0-----0---3---------0---3----| 
E|---------------------------------------------------------| 


  2:35 

e|x-10\8~\6------------------------------------------------| 
B|x-10\8~\6--1---------------------1-----------------------| 
G|-----------2---------------------2-----------------------| 
D|-----------0-x-x-------------0---0-----------------------|  
A|-----------------0---3---0-------------------------------| 
E|---------------------------------------------------------| 
	  

No existe una video leccione para esta canción

request
LosAcordes
Buscar
auto avanzar rasgueos aumentar disminuir cambiar color esconder acordes gráficos
losacordes exhibir acordes losacordes youTube video losacordes ocultar tabs losacordes ir hacia arriba losacordes