Bert Jansch

Início > Bert Jansc... > acordes

A Woman Like You Tablatura

Bert Jansch

Dificultad:PrincipiantePrincipiante

terr_schmitz

tuner correct add songbook print version text version salvar en e-mail
acordesukuleletablaturabajobateríaarmónicaflautacavacopiano Guitar Pro
acordes

A Woman Like You

	  
Tuning: D A D G A D 




D |----------------------------|--------------0-------------| 
A |----------------------------|-----0--------------0-------| 
G |----------------------------|--------2-----0-------------| 
D |----------------------------|--3s-4-----4--------4-------| 
A |----------------------------|----------------------------| 
D |-----------------------0----|-----------------0-----0----| 


----------------------------------------------------------------------------| 
-----------------------------------------------------------3----------------| 
--0-----------------------------------------------------4-----4-------------| 
----------------------------------------------------------------------------| 
--3--------------------------3~-------------------------2-------------------| 
--------------------0--------------------------0----------------------------| 

           v  ^           ^        v  ^     ^ 
--------------------------0-----------0-----0-------| 
-----------0--0-----------0--------0--0-----0-------| 
--2--------2--2-----------2--------2--2-----2-------| 
--------------0-----------0-----------0-----0-------| 
--0-------------------------------------------------| 
-----------------------------------------------0----| 


--------------0-------------| 
--0-----------------0-------| 
--------2-----0-------------| 
--3s-4-----4--------4-------| 
----------------------------| 
-----------------0-----0----| 


----------------------------------------------------------------------------| 
-----------------------------------------------------------3----------------| 
--0-----------------------------------------------------4-----4-------------| 
----------------------------------------------------------------------------| 
--3--------------------------3~-------------------------2-------------------| 
--------------------0--------------------------0----------------------------| 

           v  ^           ^        v  ^     ^ 
--------------------------0-----------0-----0-------|| 
-----------0--0-----------0--------0--0-----0-------|| 
--2--------2--2-----------2--------2--2-----2-------|| 
--------------0-----------0-----------0-----0-------|| 
--0-------------------------------------------------|| 
-----------------------------------------------0----|| 

       ^  v              ^  v     v 
-------0--0--------------0--0-----0----------------| 
-------0--0--------------0--0-----0----------------| 
o0-----------2-----0-------------------------------| 
o------------------------------3-----0-------------| 
-------------------------------------------3-------| 
---------------------------------------------------| 

        ^  v              ^  v     v 
--------0--0--------------0--0-----0----------------| 
--------0--0--------------0--0-----0----------------| 
--0-----------2-----0-------------------------------| 
--------------------------------3-----0-------------| 
--------------------------------------------3-------| 
----------------------------------------------------| 

        ^  v 
--------0--0--------------0--0--------------2-------| 
--------0--0--------0h-3--------------3-------------| 
--0-----------2-----------------2-----------2-------| 
----------------------------------------------------| 
----------------------------------------------------| 
----------------------------------------------------| 


--0-----------------------------------------------------------------------------| 
-----------------------------3--------------------------------------------0-----| 
--0-----------------------------------------------------------------------------| 
--------------------------------------3-----------------------------------0-----| 
--------------------------------------------------------------------------------| 
--------------------------------------------------------------------------------| 

            v     ^ 
------------0-----0--------------------0----------------------------| 
------------0-----0--------------------0----------------------------| 
------------2-----2-----------0-------------------------------------| 
------------------------------------------------3-------------------| 
--------------------------------------------------------------------| 
--------------------------------------------------------------------| 

        ^  v              ^  v     v 
--------0--0--------------0--0-----0----------------| 
--------0--0--------------0--0-----0----------------| 
----------------------------------------------------| 
--0-----------------0-----------2-----2h-3--2-------| 
--------------3-------------------------------------| 
----------------------------------------------------| 

        ^  v              ^  v 
--------0--0--------------0--0-----0----------------| 
--------0--0--------------0--0-----0----------------| 
----------------------------------------------------| 
--0-----------------0-----------------0-------------| 
--------------3-----------------3-------------------| 
--------------------------------------------0-------| 


--------------0-------------| 
-----0--------------0-------| 
--------2-----0-------------| 
--3s-4-----4--------4-------| 
----------------------------| 
-----------------0-----0----| 


----------------------------------------------------------------------------| 
-----------------------------------------------------------3----------------| 
--0-----------------------------------------------------4-----4-------------| 
----------------------------------------------------------------------------| 
--3--------------------------3~-------------------------2-------------------| 
--------------------0--------------------------0----------------------------| 

              ^     ^        v 
--------------------0--------0----------------------| 
-----------0--0-----0--------0-----------0----------| 
--2--------2--2-----2--------2--------5-------------| 
--------------0-----0-----------------------0-------| 
--0-----------------------------------3-------------| 
--------------------------------0-------------------| 

           v  ^           ^        v  ^     ^ 
--------------------------0-----------0-----0-------| 
-----------0--0-----------0--------0--0-----0-------| 
--2--------2--2-----------2--------2--2-----2-------| 
--------------0-----------0-----------0-----0-------| 
--0-------------------------------------------------| 
-----------------------------------------------0----| 


--------------0-------------| 
-----0--------------0-------| 
--------2-----0-------------| 
--3s-4-----4--------4-------| 
----------------------------| 
-----------------0-----0----| 


----------------------------------------------------------------------------| 
-----------------------------------------------------------3----------------| 
--0-----------------------------------------------------4-----4-------------| 
----------------------------------------------------------------------------| 
--3--------------------------3~-------------------------2-------------------| 
--------------------0--------------------------0----------------------------| 

              ^     ^        v 
--------------------0--------0----------------------| 
-----------0--0-----0--------0-----------0----------| 
--2--------2--2-----2--------2--------5-------------| 
--------------0-----0-----------------------0-------| 
--0-----------------------------------3-------------| 
--------------------------------0-------------------| 

           v  ^           ^        v  ^     ^ 
--------------------------0-----------0-----0------||| 
-----------0--0-----------0--------0--0-----0------||| 
--2--------2--2-----------2--------2--2-----2-----o||| 
--------------0-----------0-----------0-----0-----o||| 
--0------------------------------------------------||| 
-----------------------------------------------0---||| 
	  

No existe una video leccione para esta canción

request
LosAcordes
Buscar
auto avanzar rasgueos aumentar disminuir cambiar color esconder acordes gráficos
losacordes exhibir acordes losacordes youTube video losacordes ocultar tabs losacordes ir hacia arriba losacordes