Avenged Sevenfold

Início > Avenged Se... > acordes

Jade Helm Tablatura

Avenged Sevenfold

Dificultad:Ningún gradoNingún grado

deivcavalcanti

tuner correct add songbook print version text version salvar en e-mail
acordesukuleletablaturabajobateríaarmónicaflautacavacopiano Guitar Pro
acordes

Jade Helm

	  

E |----|----|----|----|----|----|----|----|----------|----------|----------| 
B |----|----|----|----|----|----|----|----|----------|----------|----------| 
G |----|----|----|----|----|----|----|----|--9--10---|----------|--9--10---| 
D |----|----|----|----|----|----|----|----|--7--7----|--10-8----|--7--7----| 
A |----|----|----|----|----|----|----|----|--5--5----|--6--6----|--5--5----| 
D |----|----|----|----|----|----|----|----|----------|--6--6----|----------| 


-------|----------|----------|----------|-------|----------|----------| 
-------|----------|----------|----------|-------|----------|----------| 
-------|--9--10---|----------|----------|-------|--7--8----|----------| 
--10---|--7--7----|--10-8----|--7--5----|--7----|--5--5----|--8--6----| 
--6----|--5--5----|--6--6----|--5--5----|--5----|--3--3----|--4--4----| 
--6----|----------|--6--6----|--5--5----|--4----|----------|--4--4----| 


----------|-------|----------|----------|----------|-------|----------| 
----------|-------|----------|----------|----------|-------|----------| 
--7--8----|-------|--9--10---|----------|----------|-------|--9--10---| 
--5--5----|--8----|--7--7----|--10-8----|--7--5----|--7----|--7--7----| 
--3--3----|--4----|--5--5----|--6--6----|--5--5----|--5----|--5--5----| 
----------|--4----|----------|--6--6----|--5--5----|--4----|----------| 


----------|----------|-------|----------|----------|----------|-------| 
----------|----------|-------|----------|----------|----------|-------| 
----------|--9--10---|-------|--9--10---|----------|----------|-------| 
--10-8----|--7--7----|--10---|--7--7----|--10-8----|--7--5----|--7----| 
--6--6----|--5--5----|--6----|--5--5----|--6--6----|--5--5----|--5----| 
--6--6----|----------|--6----|----------|--6--6----|--5--5----|--4----| 


----------|----------|----------|-------|----------|----------|----------| 
----------|----------|----------|-------|----------|----------|----------| 
--7--8----|----------|--7--8----|-------|--9--10---|----------|----------| 
--5--5----|--8--6----|--5--5----|--8----|--7--7----|--10-8----|--7--5----| 
--3--3----|--4--4----|--3--3----|--4----|--5--5----|--6--6----|--5--5----| 
----------|--4--4----|----------|--4----|----------|--6--6----|--5--5----| 


-------|----|----|----|----|----|----|----|----|| 
-------|----|----|----|----|----|----|----|----|| 
-------|----|----|----|----|----|----|----|----|| 
--7----|----|----|----|----|----|----|----|----|| 
--5----|----|----|----|----|----|----|----|----|| 
--4----|----|----|----|----|----|----|----|----|| 

Lead guitar Left 

E |----|----|----|----|----|----|----|----|----|----|----|----|----|----|----| 
B |----|----|----|----|----|----|----|----|----|----|----|----|----|----|----| 
G |----|----|----|----|----|----|----|----|----|----|----|----|----|----|----| 
D |----|----|----|----|----|----|----|----|----|----|----|----|----|----|----| 
A |----|----|----|----|----|----|----|----|----|----|----|----|----|----|----| 
E |----|----|----|----|----|----|----|----|----|----|----|----|----|----|----| 


----|----|----|----|----|----|----|----|----| 
----|----|----|----|----|----|----|----|----| 
----|----|----|----|----|----|----|----|----| 
----|----|----|----|----|----|----|----|----| 
----|----|----|----|----|----|----|----|----| 
----|----|----|----|----|----|----|----|----| 


----------------------------------------| 
--------10-11-10----------10-11-10------| 
-----10----------10----10----------10---| 
--12----------------12------------------| 
----------------------------------------| 
----------------------------------------| 


----------------------------------------| 
--------9--13-9-----------9--13-9-------| 
-----10----------10----10----------10---| 
--10----------------10------------------| 
----------------------------------------| 
----------------------------------------| 


----------------------------------------| 
--------10-11-10----------10-11-10------| 
-----10----------10----10----------10---| 
--12----------------12------------------| 
----------------------------------------| 
----------------------------------------| 


----------------------------------------| 
--------9--13-9-----------9--13-9-------| 
-----10----------10----10----------10---| 
--10----------------10------------------| 
----------------------------------------| 
----------------------------------------| 


----------------------------------------| 
--------10-11-10----------10-11-10------| 
-----10----------10----10----------10---| 
--12----------------12------------------| 
----------------------------------------| 
----------------------------------------| 


----------------------------------------| 
--------9--13-9-----------9--13-9-------| 
-----10----------10----10----------10---| 
--10----------------10------------------| 
----------------------------------------| 
----------------------------------------| 


----------------------------------------| 
--7--8--------------7--8----------------| 
--------7M----------------7M------------| 
-----------8M-5M-8M----------8M-5M-8M---| 
----------------------------------------| 
----------------------------------------| 


----------------------------------------| 
--------7--10-7-----------7--10-7-------| 
-----7-----------7-----7-----------7----| 
--8-----------------8-------------------| 
----------------------------------------| 
----------------------------------------| 


----------------------------------------| 
--------8--9--8-----------8--9--8-------| 
-----8-----------8-----8-----------8----| 
--10----------------10------------------| 
----------------------------------------| 
----------------------------------------| 


----------------------------------------| 
--------7--11-7-----------7--11-7-------| 
-----8-----------8-----8-----------8----| 
--8-----------------8-------------------| 
----------------------------------------| 
----------------------------------------| 


----------------------------------------| 
--------8--9--8-----------8--9--8-------| 
-----8-----------8-----8-----------8----| 
--10----------------10------------------| 
----------------------------------------| 
----------------------------------------| 


----------------------------------------| 
--------7--11-7-----------7--11-7-------| 
-----8-----------8-----8-----------8----| 
--8-----------------8-------------------| 
----------------------------------------| 
----------------------------------------| 


----------------------------------------| 
--------10-11-10----------10-11-10------| 
-----10----------10----10----------10---| 
--12----------------12------------------| 
----------------------------------------| 
----------------------------------------| 


----------------------------------------| 
--------10-13-10----------10-13-10------| 
-----10----------10----10----------10---| 
--10----------------10------------------| 
----------------------------------------| 
----------------------------------------| 


----------------------------------------| 
--7--8--------------7--8----------------| 
--------7M----------------7M------------| 
-----------8M-5M-8M----------8M-5M-8M---| 
----------------------------------------| 
----------------------------------------| 


----------------------------------------|----|----|----|----|----|----|----| 
--------7--10-7-----------7--10-7-------|----|----|----|----|----|----|----| 
-----7-----------7-----7-----------7----|----|----|----|----|----|----|----| 
--8-----------------8-------------------|----|----|----|----|----|----|----| 
----------------------------------------|----|----|----|----|----|----|----| 
----------------------------------------|----|----|----|----|----|----|----| 


----|| 
----|| 
----|| 
----|| 
----|| 
----|| 

Lead Guitar Right 

E |----|----|----|----|----|----|----|----|----|----|----|----|----|----|----| 
B |----|----|----|----|----|----|----|----|----|----|----|----|----|----|----| 
G |----|----|----|----|----|----|----|----|----|----|----|----|----|----|----| 
D |----|----|----|----|----|----|----|----|----|----|----|----|----|----|----| 
A |----|----|----|----|----|----|----|----|----|----|----|----|----|----|----| 
E |----|----|----|----|----|----|----|----|----|----|----|----|----|----|----| 


----|----|----|----|----|----|----|----|----| 
----|----|----|----|----|----|----|----|----| 
----|----|----|----|----|----|----|----|----| 
----|----|----|----|----|----|----|----|----| 
----|----|----|----|----|----|----|----|----| 
----|----|----|----|----|----|----|----|----| 


----------------------------------------| 
--------6--8--6-----------6--8--6-------| 
-----7-----------7-----7-----------7----| 
--7-----------------7-------------------| 
----------------------------------------| 
----------------------------------------| 


----------------------------------------| 
--------6--9--6-----------6--9--6-------| 
-----7-----------7-----7-----------7----| 
--6-----------------6-------------------| 
----------------------------------------| 
----------------------------------------| 


----------------------------------------| 
--------6--8--6-----------6--8--6-------| 
-----7-----------7-----7-----------7----| 
--7-----------------7-------------------| 
----------------------------------------| 
----------------------------------------| 


----------------------------------------| 
--------6--9--6-----------6--9--6-------| 
-----7-----------7-----7-----------7----| 
--6-----------------6-------------------| 
----------------------------------------| 
----------------------------------------| 


----------------------------------------| 
--------6--8--6-----------6--8--6-------| 
-----7-----------7-----7-----------7----| 
--7-----------------7-------------------| 
----------------------------------------| 
----------------------------------------| 


----------------------------------------| 
--------6--9--6-----------6--9--6-------| 
-----7-----------7-----7-----------7----| 
--6-----------------6-------------------| 
----------------------------------------| 
----------------------------------------| 


----------------------------------------| 
--6--3--------------6--3----------------| 
--------3M----------------3M------------| 
-----------3M----3M----------3M----3M---| 
--------------5M----------------5M------| 
----------------------------------------| 


----------------------------------------| 
--------3--6--3-----------3--6--3-------| 
-----3-----------3-----3-----------3----| 
--3-----------------3-------------------| 
----------------------------------------| 
----------------------------------------| 


----------------------------------------| 
--------4--6--4-----------4--6--4-------| 
-----5-----------5-----5-----------5----| 
--5-----------------5-------------------| 
----------------------------------------| 
----------------------------------------| 


----------------------------------------| 
--------4--7--4-----------4--7--4-------| 
-----5-----------5-----5-----------5----| 
--4-----------------4-------------------| 
----------------------------------------| 
----------------------------------------| 


----------------------------------------| 
--------4--6--4-----------4--6--4-------| 
-----5-----------5-----5-----------5----| 
--5-----------------5-------------------| 
----------------------------------------| 
----------------------------------------| 


----------------------------------------| 
--------4--7--4-----------4--7--4-------| 
-----5-----------5-----5-----------5----| 
--4-----------------4-------------------| 
----------------------------------------| 
----------------------------------------| 


----------------------------------------| 
--------6--8--6-----------6--8--6-------| 
-----7-----------7-----7-----------7----| 
--7-----------------7-------------------| 
----------------------------------------| 
----------------------------------------| 


----------------------------------------| 
--------6--9--6-----------6--9--6-------| 
-----7-----------7-----7-----------7----| 
--6-----------------6-------------------| 
----------------------------------------| 
----------------------------------------| 


----------------------------------------| 
--6--3--------------6--3----------------| 
--------3M----------------3M------------| 
-----------3M----3M----------3M----3M---| 
--------------5M----------------5M------| 
----------------------------------------| 


----------------------------------------|----|----|----|----|----|----|----| 
--------3--6--3-----------3--6--3-------|----|----|----|----|----|----|----| 
-----3-----------3-----3-----------3----|----|----|----|----|----|----|----| 
--3-----------------3-------------------|----|----|----|----|----|----|----| 
----------------------------------------|----|----|----|----|----|----|----| 
----------------------------------------|----|----|----|----|----|----|----| 


----|| 
----|| 
----|| 
----|| 
----|| 
----|| 
	  

No existe una video leccione para esta canción

request
LosAcordes
Buscar
auto avanzar rasgueos aumentar disminuir cambiar color esconder acordes gráficos
losacordes exhibir acordes losacordes youTube video losacordes ocultar tabs losacordes ir hacia arriba losacordes