Avenged Sevenfold

Início > Avenged Se... > acordes

Brompton Cocktail Tablatura

Avenged Sevenfold

Dificultad:Ningún gradoNingún grado

bombaXXX

tuner correct add songbook print version text version salvar en e-mail
acordesukuleletablaturabajobateríaarmónicaflautacavacopiano Guitar Pro
acordes

Brompton Cocktail

Áño: 2007 - Álbum: Avenged Sevenfold

	  

      Intro: 2x   (starts at :30) 

 
e-----------------------------------------------------------------------| 
B-----------------------------------------------------------------------| 
G-----------------------------------------------------------------------| 
D-----------------------------------------------------------------------| 
A----0-----------0--7--0--/10-0--8-0--7-0-7--0--------0-7-0-8-0-6~------| 
D----0---/8--7---0--7--0--/10-0--8-0--7-0-7--0--/8-7--0-7-0-8-0-6~------| 
 

      Verse: 2x  (bass plays the 0's) 

 
e-----------------------------------------------------------------------| 
B-----------------------------------------------------------------------| 
G-----------------------------------------------------------------------| 
D-----------------------------------------------------------------------| 
A-----------------------------------------------------------------------| 
D--0-0--0-0-0--/8--0-0--0-0-0-/8--0-0--0-0-0-/8-------------------------| 
 

      Pre-Chorus: 1x (I'm really guessing on the last part) 

 
e-----------------------------------------------------------------------| 
B-----------------------------------------------------------------------| 
G-----------------------------------------------------------------------| 
D-----------------------------------------------------------------------| 
A--0-0-8-00-7--000-5-00-7--000-5-00-3-00-55-44--------------------------| 
D--0-0-8-00-7--000-5-00-7--000-5-00-3-00-66-55---0000000000000000000000-| 
 
                                                 **********************  
 
e-----------------------------------------------------------------------| 
B-----------------------------------------------------------------------| 
G-----------------------------------------------------------------------| 
D-----------------------------------------------------------------------| 
A--8--8/11-11/7--7/12-12/9--9/8-8/12--12/9--9--8888888------------------| 
D--8--8/11-11/7--7/12-12/9--9/8-8/12--12/9--9--8888888------------------| 
 

        Chorus: 2x 

 
e-----------------------------------------------------------------------| 
B-----------------------------------------------------------------------| 
G------------3333-333-3333-333------------------------------------------| 
D------------3333-333-3333-333--5555-555--------------------------------| 
A---0-00-000-1111-111-1111-111--5555-555--------------------------------| 
D---0-00-000--------------------5555-555--------------------------------| 
 

        verse 2x 
        Pre-Chorus 1x 
        Chorus 2x 

           Post-Chorus: 1x 

e-----------------------------------------------------------------------| 
B-----------------------------------------------------------------------| 
G-----------------------------------------------------------------------| 
D-----------------------------------------------------------------------| 
A--77777777--55555555--88888888--1010101010101010--77777777-55555555----| 
D--77777777--55555555--88888888--1010101010101010--77777777-55555555----| 

 
e-----------------------------------------------------------------------| 
B-----------------------------------------------------------------------| 
G-----------------------------------------------------------------------| 
D-----------------------------------------------------------------------| 
A--66666666--88888888---------------------------------------------------| 
D--66666666--88888888---------------------------------------------------| 
 

          Bridge: 

 
e----------------------------------------|  ----------------------------| 
B----------------------------------------|  ----------------------------| 
G----------------------------------------|  ----------------------------| 
D----------------------------------------|2x----------------------------| 
A--8-7----8-7-----7-5-3----5-3----3-3----|  -8-10--8-10--10--10-12-8-7--| 
D------00------00-------00-----00-----00-|  ----------------------------| 
 
       **      **       **     **     **  
 
e-----------------------------------------------------------------------| 
B-----------------------------------------------------------------------| 
G-----------------------------------------------------------------------| 
D-----------------------------------------------------------------------| 
A-8-10--8-7-8-5---------------------------------------------------------| 
D-----------------------------------------------------------------------| 
 

         Solo Thingy: 

 
e-----------------------------------------------------------------------| 
B-------------------------------------------------------12(14)\---------| 
G-----------------------------------------------------------------------| 
D--/12~--10-14--^10^~---/12~--10-14--^10^--^12^--^14^-------------------| 
A-----------------------------------------------------------------------| 
D-----------------------------------------------------------------------| 
 

e--15-----15-----15--------| I have no idea how to tab this next part, if 
B--18(19)-18(19)-18(19)----| not play it, so you'll have to make it up 
G--------------------------| yourself. 
D--------------------------| 
A--------------------------| 
D--------------------------| 

         2nd part of the Pre-Chorus 1x 
         Chorus 2x 
         Post-Chorus 1x 

      Outro: 

 
e-----------------------------------------------------------------------| 
B-----------------------------------------------------------------------| 
G-----------------------------------------------------------------------| 
D-----------------------------------------------------------------------| 
A-------------/8-------------/8---0-------------------------------------| 
D--0-0--0-0-0-/8--0-0--0-0-0-/8---0-------------------------------------| 
 


  
	  

No existe una video leccione para esta canción

request
LosAcordes
Buscar
auto avanzar rasgueos aumentar disminuir cambiar color esconder acordes gráficos
losacordes exhibir acordes losacordes youTube video losacordes ocultar tabs losacordes ir hacia arriba losacordes