Avenged Sevenfold

Início > Avenged Se... > acordes

Almost Easy Tablatura

Avenged Sevenfold

Dificultad:ExpertoExperto

Hogenham69

tuner correct add songbook print version text version salvar en e-mail
acordesukuleletablaturabajobateríaarmónicaflautacavacopiano Guitar Pro
acordes

Almost Easy

Áño: 2007 - Álbum: Avenged Sevenfold

	  Almost Easy  

Standard or Drop D tuning depending on wat YOU like they both sound good 


b=bend 
p=palm mute 
^=Bounce your fingrers off the string 

Intro 

E----------------------------------------------------------------------- 
B----------------------------------------------------------------------- 
G-15b-13-12-13-15b---15b-13-12-13-17b---15b-13-12-13-15b---15b-13-19b-17 
D----------------------------------------------------------------------- 
A----------------------------------------------------------------------- 
E----------------------------------------------------------------------- 

Riff 

E------------------------------------------------------------ 
B------------------------------------------------------------ 
G------------------------------------------------------------ 
D------------------------------------------------------------  times 2 
A-0--0-0-0-0-0-7-5-0-0-5-3-0-0-5-6--0-0-0-0-0---------------- 
E-0--0-0-0-0-0-7-5-0-0-5-3-0-0-5-6--0-0-0-0-0-555-777-666-8b- 
     p p p p p     p p     p p      p p p p p     bbb 

Verse 

E------------------------------------------------------------- 
B------------------------------------------------------------- 
G------------------------------------------------------------- 
D-------------------------------------------------------------  times 2 
A-3--0-0-0-0-0-0-3--0-0-0-0-0-0-3--0-0-0-0-0-0---------------- 
E-3--0-0-0-0-0-0-3--0-0-0-0-0-0-3--0-0-0-0-0-0-333-555-444-6b- 
     p p p p p p    p p p p p p    p p p p p p     bbb      

E----------------------------------------- 
B----------------------------------------- 
G----------------------------------------- 
D----------------------------------------- 
A-4--4-4-444--4-4-444--4-4---------------- 
E-2--2-2-222--2-2-222--2-2-333-555-444-6b- 
     ^ ^   ^  ^ ^   ^  ^ ^     bbb       


E------------------------------------------------------------- 
B------------------------------------------------------------- 
G------------------------------------------------------------- 
D------------------------------------------------------------- 
A-3--0-0-0-0-0-0-3--0-0-0-0-0-0-3--0-0-0-0-0-0---------------- 
E-3--0-0-0-0-0-0-3--0-0-0-0-0-0-3--0-0-0-0-0-0-333-555-444-6b- 
     p p p p p p    p p p p p p    p p p p p p     bbb 

Theres most of it  
Almost Easy by Avenged Sevenfold 
A7X 4 LIFE!!! 
Qustions email me at [email protected] 
	  

there is a video lesson for this song
view full video
LosAcordes
Buscar
auto avanzar rasgueos aumentar disminuir cambiar color esconder acordes gráficos
losacordes exhibir acordes losacordes youTube video losacordes ocultar tabs losacordes ir hacia arriba losacordes