12-Stones

Início > 12-Stones > acordes

Photograph Tablatura

12-Stones

Dificultad:PrincipiantePrincipiante

Falling Up

tuner correct add songbook print version text version salvar en e-mail
acordesukuleletablaturabajobateríaarmónicaflautacavacopiano Guitar Pro
acordes

Photograph

	  Intro/Verse 
----------------------------------------------------------------| 
----------------------------------------------------------------| 
-14--141414p121212h141414p1212----------------------------------| 
-0---0-0-0--0-0-0--0-0-0--0-0-----8-888h10-101010p8-888h101010--| 
-0---0-0-0--0-0-0--0-0-0--0-0-----8-888-8--8-8-8--8-888-8-8-8---| 
----------------------------------8-888-8--8-8-8--8-888-8-8-8---| 
 
----------------------------------------------------------------| 
----------------------------------------------------------------| 
--14--141414p121212\9-9-9h1010----------------------------------| 
--0---0-0-0--0-0-0--0-0-0-0-0-----8-888h10-101010p8-888h101010--|  x4 
--0---0-0-0--0-0-0--0-0-0-0-0-----8-888-8--8-8-8--8-888-8-8-8---| 
----------------------------------8-888-8--8-8-8--8-888-8-8-8---| 
 
Chorus - Distortion 
------------------------------------------| 
------------------------------------------| 
-------------5-55-------------------------| 
-0000--00-00-5-55-5-55-7-77-888888888888--| 
-0000--00-00-3-33-5-55-7-77-888888888888--| 
-0000--00-00------5-55-7-77-888888888888--| 
 pm..                                     
 
---------------------------------------------------| 
---------------------------------------------------| 
---------------------------------------------------| 
-0000-00-00-55-55-33-33-77-77-5-55-5-55-3-33-3-33--| 
-0000-00-00-55-55-33-33-77-77-5-55-5-55-3-33-3-33--| 
-0000-00-00-55-55-33-33-77-77-5-55-5-55-3-33-3-33--| 
 pm.. 
 
Instrumental Part After The Chours - Clean 
----------------------------------------------------------------| 
----------------------------------------------------------------| 
--14--141414p121212\9-9-9h1010----------------------------------| 
--0---0-0-0--0-0-0--0-0-0-0-0-----8-888h10-101010p8-888h101010--| 
--0---0-0-0--0-0-0--0-0-0-0-0-----8-888-8--8-8-8--8-888-8-8-8---| 
----------------------------------8-888-8--8-8-8--8-888-8-8-8---| 
 
Verse - Clean 
----------------------------------------------------------------| 
----------------------------------------------------------------| 
-14--141414p121212h141414p1212----------------------------------| 
-0---0-0-0--0-0-0--0-0-0--0-0-----8-888h10-101010p8-888h101010--| 
-0---0-0-0--0-0-0--0-0-0--0-0-----8-888-8--8-8-8--8-888-8-8-8---| 
----------------------------------8-888-8--8-8-8--8-888-8-8-8---| 
 
----------------------------------------------------------------| 
----------------------------------------------------------------| 
--14--141414p121212\9-9-9h1010----------------------------------| 
--0---0-0-0--0-0-0--0-0-0-0-0-----8-888h10-101010p8-888h101010--|  x4 
--0---0-0-0--0-0-0--0-0-0-0-0-----8-888-8--8-8-8--8-888-8-8-8---| 
----------------------------------8-888-8--8-8-8--8-888-8-8-8---| 
 
Guitar Part 1 (i dunno what that part would be called) - Distortion 
-------------------------------------------------------------| 
-------------------------------------------------------------| 
-------------------------------------------------------------| 
-00-0-033-3-355-5-5-03h53p03p0--00-0-033-3-355-5-5-03h53p03--|  
-00-0-033-3-355-5-5-03h53p03p0--00-0-033-3-355-5-5-03h53p03--| 
-00-0-033-3-355-5-5-03h53p03p0--00-0-033-3-355-5-5-03h53p03--| 
 pm....................................................... 
 
-------------------------------------------------------------| 
-------------------------------------------------------------| 
-------------------------------------------------------------| 
-00-0-033-3-355-5-5-03h53p03p0--00-0-033-3-355-5-5-03h53p03--|   
-00-0-033-3-355-5-5-03h53p03p0--00-0-033-3-355-5-5-03h53p03--| 
-00-0-033-3-355-5-5-03h53p03p0--00-0-033-3-355-5-5-03h53p03--| 
 pm............................................... 
 
Chorus - Distortion 
---------------------------------------------| 
---------------------------------------------| 
---------------------------------------------| 
-0000--00-00-10-1010-5-55-7-77-888888888888--| 
-0000--00-00-10-1010-5-55-7-77-888888888888--| 
-0000--00-00-10-1010-5-55-7-77-888888888888--| 
 pm..                                     
 
---------------------------------------------------| 
---------------------------------------------------| 
---------------------------------------------------| 
-0000-00-00-55-55-33-33-77-77-5-55-5-55-3-33-3-33--| 
-0000-00-00-55-55-33-33-77-77-5-55-5-55-3-33-3-33--| 
-0000-00-00-55-55-33-33-77-77-5-55-5-55-3-33-3-33--| 
 pm.. 
 
---------------------------------------------| 
---------------------------------------------| 
-5555----------------------------------------| 
-xxxx--00-00-10-1010-5-55-7-77-888888888888--| 
-3333--00-00-10-1010-5-55-7-77-888888888888--| 
-------00-00-10-1010-5-55-7-77-888888888888--| 
                                      
 
---------------------------------------------------| 
---------------------------------------------------| 
---------------------------------------------------| 
-0000-00-00-55-55-33-33-77-77-5-55-5-55-3-33-3-33--| 
-0000-00-00-55-55-33-33-77-77-5-55-5-55-3-33-3-33--| 
-0000-00-00-55-55-33-33-77-77-5-55-5-55-3-33-3-33--| 
 pm.. 
 
Guitar Part 2 (dunno what that would be called either) - Distortion 
-------------------------| 
-------------------------| 
-5/55555\3333/555555555--| 
-x/xxxxx\xxxx/xxxxxxxxx--|  x2 
-3/55555\3333/555555555--| 
-------------------------| 
 
------------------------| 
------------------------| 
------------------------| 
-00-00-33-33-55-555555--| 
-00-00-33-33-55-555555--|  x4 
-00-00-33-33-55-555555--| 
 
-------------------------------------------------------------| 
-------------------------------------------------------------| 
-------------------------------------------------------------| 
-00-0-033-3-355-5-5-03h53p03p0--00-0-033-3-355-5-5-03h53p03--|   
-00-0-033-3-355-5-5-03h53p03p0--00-0-033-3-355-5-5-03h53p03--| 
-00-0-033-3-355-5-5-03h53p03p0--00-0-033-3-355-5-5-03h53p03--| 
 pm........................................................ 
 
-------------------------------------------------------------| 
-------------------------------------------------------------| 
-------------------------------------------------------------| 
-00-0-033-3-355-5-5-03h53p03p0--00-0-033-3-355-5-5-03h53p03--|   
-00-0-033-3-355-5-5-03h53p03p0--00-0-033-3-355-5-5-03h53p03--| 
-00-0-033-3-355-5-5-03h53p03p0--00-0-033-3-355-5-5-03h53p03--| 
 
Chorus - Distortion 
---------------------------------------------| 
---------------------------------------------| 
---------------------------------------------| 
-0000--00-00-10-1010-5-55-7-77-888888888888--| 
-0000--00-00-10-1010-5-55-7-77-888888888888--| 
-0000--00-00-10-1010-5-55-7-77-888888888888--| 
 pm..                                     
 
---------------------------------------------------| 
---------------------------------------------------| 
---------------------------------------------------| 
-0000-00-00-55-55-33-33-77-77-5-55-5-55-3-33-3-33--| 
-0000-00-00-55-55-33-33-77-77-5-55-5-55-3-33-3-33--| 
-0000-00-00-55-55-33-33-77-77-5-55-5-55-3-33-3-33--| 
 pm.. 
 
---------------------------------------------| 
---------------------------------------------| 
-5555----------------------------------------| 
-xxxx--00-00-10-1010-5-55-7-77-888888888888--| 
-3333--00-00-10-1010-5-55-7-77-888888888888--| 
-------00-00-10-1010-5-55-7-77-888888888888--| 
                                      
 
---------------------------------------------------| 
---------------------------------------------------| 
---------------------------------------------------| 
-0000-00-00-55-55-33-33-77-77-5-55-5-55-3-33-3-33--| 
-0000-00-00-55-55-33-33-77-77-5-55-5-55-3-33-3-33--| 
-0000-00-00-55-55-33-33-77-77-5-55-5-55-3-33-3-33--| 
 pm.. 
  
Outro 
------------------------------| 
------------------------------| 
------------------------------| 
-00-00-1010-1010-00-00-6-5-3--|  x2 
-00-00-1010-1010-00-00-6-5-3--| 
-00-00-1010-1010-00-00-6-5-3--| 
 pm......................... 
 
------------------------------| 
------------------------------| 
------------------------------| 
-00-00-1010-1010-00-00-6-5-3--|  x2 
-00-00-1010-1010-00-00-6-5-3--| 
-00-00-1010-1010-00-00-6-5-3--| 

	  

No existe una video leccione para esta canción

request
LosAcordes
Buscar
auto avanzar rasgueos aumentar disminuir cambiar color esconder acordes gráficos
losacordes exhibir acordes losacordes youTube video losacordes ocultar tabs losacordes ir hacia arriba losacordes