The Cranberries

Início > The Cranbe... > acordes

Dying Inside Tablatura Bajo

The Cranberries

Dificultad:Ningún gradoNingún grado

tuner correct add songbook print version text version salvar en e-mail
acordesukuleletablaturabaixobateríaarmónicaflautacavacopiano Guitar Pro
acordes

Dying Inside

Áño: 2001 - Álbum: Wake Up and Smell the Coffee

	  



Standard Tunning

------------------------------------------------
------------------------------------------------
-----------------------8--8--7-7----------------
-8h10-8-8~--8h10-8-8~---------------------------

or

------------------------------------------------
---------------------3--3--2-2------------------
-3h5-3-3~--3h5-3-3~-----------------------------
------------------------------------------------

the song is basically it...

	  

No existe una video leccione para esta canción

request
LosAcordes
Buscar
auto avanzar rasgueos aumentar disminuir cambiar color esconder acordes gráficos
losacordes exhibir acordes losacordes youTube video losacordes ocultar tabs losacordes ir hacia arriba losacordes