The Beatles

Início > The Beatle... > acordes

Not Guilty Tablatura Bajo

The Beatles

Dificultad:Ningún gradoNingún grado

joaoewerton

tuner correct add songbook print version text version salvar en e-mail
acordesukuleletablaturabaixobateríaarmónicaflautacavacopiano Guitar Pro
acordes

Not Guilty

Tono:  Em
	  

Intro                                       
G|--------------------------------|--------------------------------| 
D|--------9-----------------------|--------9-----------------------|      
A|7-------------------7---7-------|7-------------------7---7-------| 
E|--------------------------------|--------------------------------| 
  ^       ^       ^       ^        ^       ^       ^       ^       
                                                          Not 
G|--------------------------------|--------------------------------| 
D|--------9-----------------------|--------9---------------9---9---|      
A|7-------------------7---7-------|7---------------7---------------| 
E|--------------------------------|--------------------------------| 
  ^       ^       ^       ^        ^       ^       ^       ^       

Verse 
  guilty                                                         for 
G|--------------------------------|--------------------------------| 
D|--------------------------------|--------------------------------|      
A|--------------------------------|--------------------------------| 
E|5-----------5---3------------3--|2-----------2---3---5-------h6--| 
  ^       ^       ^       ^        ^       ^       ^       ^       

  getting in your way      while you try to steal the                                      
G|--------------------------------|----------------| 
D|--------------------------------|----------------|      
A|------------7-------------------|------------7---| 
E|7---7---------------------------|7---7-----------| 
  ^       ^       ^       ^        ^       ^              

BRIDGE-TO-VERSE 
  day                                                   Not  
G|--------------------------------|--------------------------------| 
D|--------------------------------|--------------------------------|      
A|----7---7-------7-------7-------|7-------7-------7-h8-h9-7-h8-h9-| 
E|--------------------7-----------|--------------------------------| 
  ^       ^       ^       ^        ^       ^       ^       ^       

Verse 
  guilty                                                    and I'm 
G|--------------------------------|--------------------------------| 
D|7-------------------------------|--------------------------------|      
A|--------------------------------|--------------------------------| 
E|----------------3------------3--|2-----------2---3---5-----------| 
  ^       ^       ^       ^        ^       ^       ^       ^       

  nodding for the rest     I'm not trying to steal your                                        
G|--------------------------------|----------------| 
D|--------------------------------|----------------|      
A|-------------7------------------|----------------| 
E|7---7---------------------------|7---5-------3---| 
  ^       ^       ^       ^        ^       ^              

Bridge 
  vest                                      
G|--------------------------------|------------5-------------------| 
D|--------------------------------|--------7-----------7-----------|      
A|--------1-------3---3---4-------|/5----------------------5-------| 
E|----3---------------------------|--------------------------------| 
  ^       ^       ^       ^        ^       ^       ^       ^       

Chorus 
        I am not trying  to be     smart I only want what  I can                                    
G|--------------------------------|----------------9---7-----------| 
D|--------6-------9-------6---9---|--------6---9-----------9---7---|      
A|7-------------------------------|7-------------------------------| 
E|--------------------------------|--------------------------------| 
  ^       ^       ^       ^        ^       ^       ^       ^       

  get                                                 I'm really  
G|--------------------------------|--------------------------------| 
D|5-------5-------5-------5-------|--------------------------------|      
A|--------------------------------|--------------------------------| 
E|--------------------------------|3--3--3-3--3--3-----------------| 
  ^       ^       ^       ^        ^       ^       ^       ^       

  sorry for your raging head   but like you heard me said  Not 
G|--------------------------------|--------------------------------| 
D|--------------------------------|--------------------------------|      
A|7-----------7-------------------|--------------------------------| 
E|--------------------------------|7-----------7-------------------| 
  ^       ^       ^       ^        ^       ^       ^       ^       

Verse 
  guilty                                               though you're 
G|--------------------------------|--------------------5-----------| 
D|7---------------5---------------|4-----------5---7---------------|      
A|--------------------------------|--------------------------------| 
E|--------------------------------|--------------------------------| 
  ^       ^       ^       ^        ^       ^       ^       ^       

  signing me a writ        while I'm trying to do my                              
G|--------------------------------|----------------| 
D|--------------------------------|----------------|      
A|------------7-------------------|----------------| 
E|7---7---------------------------|7---5--------3--| 
  ^       ^       ^       ^        ^       ^              

Bridge 
  bit                                       
G|--------------------------------|----------------5---------------| 
D|--------------------------------|--------7---------------7-------|      
A|--------1-------3---3---4-------|/5------------------------------| 
E|----3---------------------------|--------------------------------| 
  ^       ^       ^       ^        ^       ^       ^       ^       

Chorus 
   I don't expect  to take your hoard   I only  want what  I can    
G|--------------------------------|----------------9---7-----------| 
D|--------6-------9-------6---9---|--------6---9-----------9---7---|      
A|7-------------------------------|7-------------------------------| 
E|--------------------------------|--------------------------------| 
  ^       ^       ^       ^        ^       ^       ^       ^       

  get                                                  I'm really  
G|--------------------------------|--------------------------------| 
D|5-------5-------5-------5-------|--------------------------------|      
A|--------------------------------|--------------------------------| 
E|--------------------------------|3--3--3-3--3--3-----------------| 
  ^       ^       ^       ^        ^       ^       ^       ^       

  sorry that you're underfed  but like you heard me said        Not 
G|--------------------------------|--------------------------------| 
D|--------------------------------|--------------------------------|      
A|7-------------------------------|--------------------------------| 
E|------------7-------------------|7--7--7-7--7--7-----------------| 
  ^       ^       ^       ^        ^       ^       ^       ^       

INTRO REPRISE 
  guilty 
G|--------------------------------|--------------------------------| 
D|--------9-----------------------|--------9-----------------------|      
A|7-------------------7---7-------|7-------------------7---7-------| 
E|--------------------------------|--------------------------------| 
  ^       ^       ^       ^        ^       ^       ^       ^       

G|--------------------------------|--------------------------------| 
D|--------9-----------------------|--------9---------------9-------|      
A|7-------------------7---7-------|7---------------7---7-------7---| 
E|--------------------------------|--------------------------------| 
  ^       ^       ^       ^        ^       ^       ^       ^          

BASS SOLO 
G|--------------------------------|--------------------------------| 
D|7-------7-------5-------5-------|4-------4---5---7---5---4-------|      
A|--------------------------------|--------------------------------| 
E|--------------------------------|--------------------------------| 
  ^       ^       ^       ^        ^       ^       ^       ^       

G|--------------------------------|--------------------------------| 
D|--------------------------------|--------4---5---7---5---4-------|      
A|7-------7-----------5---7-------|7---------------------------7---| 
E|----------------7---------------|--------------------------------| 
  ^       ^       ^       ^        ^       ^       ^       ^       

G|--------------------------------|--------------------------------| 
D|7-------7-------5-------5-------|4-------4---5---4---------------|      
A|--------------------------------|--------------------7-----------| 
E|--------------------------------|--------------------------------| 
  ^       ^       ^       ^        ^       ^       ^       ^  

                                                          Not 
G|---------|9--------|---------|9--------|---------|---------| 
D|9--------|---------|9--------|---------|9--------|---9\----|      
A|---------|---------|---------|---------|---------|7--------| 
E|---------|---------|---------|---------|---------|---------| 
  ^  ^  ^   ^  ^  ^   ^  ^  ^   ^  ^  ^   ^  ^  ^   ^  ^  ^             

Verse 
  guilty                                                         for 
G|--------------------------------|--------------------------------| 
D|7-------7-------5-------5-------|4-------4---5---7--p5---4-------|      
A|--------------------------------|--------------------------------| 
E|--------------------------------|--------------------------------| 
  ^       ^       ^       ^        ^       ^       ^       ^        

  looking like a freak     making friends with every  
G|--------------------------------|----------------| 
D|--------------------------------|----------------|      
A|------------7-------------------|----------------| 
E|7---7---------------------------|7---7\-------0--| 
  ^       ^       ^       ^        ^       ^              

SECOND BRIDGE-TO-VERSE 
  Sheik                 Not         
G|--------------------------------| 
D|----------------4-------5-------|      
A|--------7-----------------------| 
E|--------------------------------| 
  ^       ^       ^       ^               

Verse 
  guilty                                                         for   
G|--------------------------------|--------------------------------| 
D|7---------------5-------5-------|4-------4---5---7--p5---7-------|      
A|--------------------------------|--------------------------------| 
E|--------------------------------|--------------------------------| 
  ^       ^       ^       ^        ^       ^       ^       ^       

  leading you astray        on the road to  Masalay 
G|--------------------------------|----------------| 
D|--------------------------------|----------------|      
A|7-----------7-------------------|----------------| 
E|----7---------------------------|7---5-------3---| 
  ^       ^       ^       ^        ^       ^ 

Bridge 
G|--------------------------------|------------5-------------------| 
D|--------------------------------|--------7-----------7-----------|      
A|--------1-------3-------4-------|/5----------------------5-------| 
E|----3---------------------------|--------------------------------| 
  ^       ^       ^       ^        ^       ^       ^       ^         

Chorus 
       I won't upset the apple cart     I only want  what I can  
G|--------------------------------|----------------9---7-----------| 
D|--------6-------9-------6---9---|--------6---9-----------9---7---|      
A|7-------------------------------|7-------------------------------| 
E|--------------------------------|--------------------------------| 
  ^       ^       ^       ^        ^       ^       ^       ^ 

  get                                                  I'm really  
G|--------------------------------|--------------------------------| 
D|5-------5-------5-------5-------|--------------------------------|      
A|------------5-------------------|--------------------------------| 
E|--------------------------------|3--3--3-3--3--3-----------------| 
  ^       ^       ^       ^        ^       ^       ^       ^         

  sorry that you've been misled but like you heard me said      Not 
G|--------------------------------|--------------------------------| 
D|--------------------------------|--------------------------------|      
A|7--7--7-7--7--7\----------------|--------------------------------| 
E|--------------------------------|7--7--7-7--7--7-----------------| 
  ^       ^       ^       ^        ^       ^       ^       ^       

BRIDGE-TO-JAM 
  guilty   
G|--------------------------------| 
D|--------------------------------|      
A|--------------------------------| 
E|5-------3-------2-------0-------| 
  ^       ^       ^       ^         

OUTRO JAM 
Start with this riff (x6)      
G|--------------------------------| 
D|--------------------------------|      
A|7-p6--5-7-------7-p6--5-7-------| 
E|--------------------------------| 
  ^       ^       ^       ^               

Then it descends down 
G|--------------------------------|--------------------------------| 
D|--------------------------------|--------------------------------|      
A|5-p4--3-5-------5-p4--3-5-------|--------------------------------| 
E|--------------------------------|7-p6--5-7-------7-p6--5-7-------| 
  ^       ^       ^       ^        ^       ^       ^       ^       

G|--------------------------------|--------------------------------| 
D|--------------------------------|--------------------------------|      
A|--------------------------------|--------------------------------| 
E|5-p4--3-5-------5-p4--3-5-------|3-p2--1-3-------3-p2--1-0-------| 
  ^       ^       ^       ^        ^       ^       ^       ^       

Then variations of this 
G|--------------------------------| 
D|--------------------------------|      
A|7-p6--5-7-----------------------| 
E|----------------7-p6--5-7-------| 
  ^       ^       ^       ^         

With variations of this at times, until fadeout 
G|--------------------------------| 
D|--------------------------------|      
A|--------------------------------| 
E|5-p4--3-0-------5-p4--3-0-------| 
  ^       ^       ^       ^ 


************************************ 

| h  Hammer-on 
| /  Slide up 
| \  Slide down 
| p  Pull-off 

************************************ 
	  

No existe una video leccione para esta canción

request
LosAcordes
Buscar
auto avanzar rasgueos aumentar disminuir cambiar color esconder acordes gráficos
losacordes exhibir acordes losacordes youTube video losacordes ocultar tabs losacordes ir hacia arriba losacordes