Sting

Início > Sting > acordes

An Englishman in New York Tablatura Bajo

Sting

Dificultad:PrincipiantePrincipiante

tuner correct add songbook print version text version salvar en e-mail
acordesukuleletablaturabaixobateríaarmónicaflautacavacopiano Guitar Pro
acordes

An Englishman in New York

Tono:  Bm
	  Common Time(4/4)
Standard Tuning(EADG)

INTRO:
|---------|---------|---------|---------|---------|
|---------|---------|---------|---------|---------|
|-----0---|-2---2-0-|-----0---|-2---2-0-|-----0---|
|-0-------|---------|-0-------|---------|-0-------|
  1 2 3 4   1 2 3 4   1 2 3 4   1 2 3 4   1 2 3 4   

|---------------|---------|-------------|
|---------------|---------|-------------|
|-2-----0-2-4-5-|-----0---|-2---2---2-0-|
|---------------|-0-------|-------------|
  1 2 & a 3 & 4   1 2 3 4   1 2 3 & a 4

1ST VERSE:
|---------|---------|---------|-----------------|---------|
|---------|---------|-----.-.-|-----------------|---------|
|-.-.-0---|-2---2-0-|-.-.-0-0-|-2-------2-0---2-|-----0---|
|-0-0-----|---------|-0-0-----|-----------------|-0-------|
  1 2 3 4   1 2 3 4   1 2 3 4   1 2 3 & a 4 & a   1 2 3 4

|---------|---------|-----------------|
|---------|---------|-----------------|
|-2---2-0-|-----0---|-2-----0-2-4-5-2-|
|---------|-0-------|-----------------|
  1 2 3 4   1 2 3 4   1 2 & a 3 & 4 &

2ND VERSE:
|---------|---------------|---------|-------------|---------|
|-----.-.-|---------------|-----.-.-|-------------|-----.-.-|
|-.-.-0-0-|-2-----0-2-4-5-|-.-.-0-0-|-2-----0-2-0-|-----0-0-|
|-0-0-----|---------------|-0-0-----|-------------|-0-------|
  1 2 3 4   1 2 & a 3 & 4   1 2 3 4   1 2 & a 3 4   1 2 3 4

|-------------|---------|---------|
|-------------|-----.-.-|-.-.-.---|
|-2-----0-2-0-|-.-.-0-0-|-2-2-2-5-|
|-------------|-0-0-----|---------|
  1 2 & a 3 4   1 2 3 4   1 2 3 4

1ST CHORUS:
|---------|---------------|---------|-----------------|
|-----.-.-|-.-.-.---------|-----.-.-|-.-.-------------|
|-.-.-0-0-|-2-2-2---0-2-4-|-.-.-0-0-|-2-2---0-2-4-5-2-|
|-0-0-----|---------------|-0-0-----|-----------------|
  1 2 3 4   1 2 3 & a 4 &   1 2 3 4   1 2 & a 3 & 4 &

|---------|-------------|---------|-----------------|
|-----.-.-|-.-.---------|-----.-.-|-.-.-.-----------|
|-.-.-0-0-|-2-2-2-4-5-2-|-.-.-0-0-|-2-2-2---0-2---0-|
|-0-0-----|-------------|-0-0-----|-----------------|
  1 2 3 4   1 2 3 & 4 &   1 2 3 4   1 2 3 & a 4 & a 

3RD VERSE:
|---------|-----------|---------|-----------------|
|-----.-.-|-.-.-.-----|-----.-.-|-.-.-------------|
|-.-.-0-0-|-2-2-2-2h5-|-.-.-0-0-|-2-2---0-2-4-5-2-|
|-0-0-----|-----------|-0-0-----|-----------------|
  1 2 3 4   1 2 3 4 &   1 2 3 4   1 2 & a 3 & 4 &

|---------|---------|---------|-------------|
|-----.-.-|-.-.-----|-----.-.-|-.-.---------|
|-.-.-0-0-|-2-2-2-0-|-.-.-0-0-|-2-2---0-2-0-|
|-0-0-----|---------|-0-0-----|-------------|
  1 2 3 4   1 2 3 4   1 2 3 4   1 2 & a 3 4

2ND CHORUS:
|---------|---------------|---------|-----------------|
|-----.-.-|-.-.-.---------|-----.-.-|-.-.-------------|
|-.-.-0-0-|-2-2-2---0-2-4-|-.-.-0-0-|-2-2---0-2-4-5-2-|
|-0-0-----|---------------|-0-0-----|-----------------|
  1 2 3 4   1 2 3 & a 4 &   1 2 3 4   1 2 & a 3 & 4 &

|---------|-------------|---------|---------|
|-----.-.-|-.-.---------|-----.-.-|-.-.-.-.-|
|-.-.-0-0-|-2-2-2-4-5-2-|-.-.-0-0-|-2-2-2-4-|
|-0-0-----|-------------|-0-0-----|---------|
  1 2 3 4   1 2 3 & 4 &   1 2 3 4   1 2 3 4

INTERLUDE:
|---------|---------|---------|---------|---------|
|-.-.-4---|-.-.-.---|-.-.-.---|---------|---------|
|-5-5---5-|-0-0-0-0-|-2-2-2-2-|-.-.-.---|-.-.-.---|
|---------|---------|---------|-3-3-3-3-|-5-5-5-5-|
  1 2 3 4   1 2 3 4   1 2 3 4   1 2 3 4   1 2 3 4

|---------|---------|
|---------|---------|
|---------|-----.---|
|-6-------|-7---7-r-|
  1 2 3 4   1 2 3 4

SOLO: No Idea

4TH VERSE:
|---------|---------------|---------|-------------|
|-----.-.-|-.-.---2-------|-----.-.-|-.-.-.-------|
|-.-.-0-0-|-2-2-2---0---0-|-.-.-0-0-|-2-2-2-0---0-|
|-0-0-----|---------------|-0-0-----|-------------|
  1 2 3 4   1 2 3 & 4 & a   1 2 3 4   1 2 3 4 & a 

|---------|-------------|---------|-------------|
|-----.-.-|-.-.-.-------|-----.-.-|-.-.---------|
|-.-.-0-0-|-2-2-2-0---0-|-.-.-0-0-|-2-2---0h2-0-|
|-0-0-----|-------------|-0-0-----|-------------|
  1 2 3 4   1 2 3 4 & a   1 2 3 4   1 2 & a 3 4 

|---------|-------------|---------|-----------------|
|-----.-.-|-.-.-.-.-----|-----.-.-|-.-.-------------|
|-.-.-0-0-|-2-2-2-4-5-2-|-.-.-0-0-|-2-2---0-2-4-5-2-|
|-0-0-----|-------------|-0-0-----|-----------------|
  1 2 3 4   1 2 3 & 4 &   1 2 3 4   1 2 & a 3 & 4 &

|-------------|-----------------|---------|-------------|
|-----.-.---4-|-.-.---4---------|-----.-.-|-.-.---------|
|-.-.-0-0-----|-2-2-----2-4-5-2-|-.-.-0-0-|-2-2-2-4-5-2-|
|-0-0---------|-----------------|-0-0-----|-------------|
  1 2 3 4 & a   1 2 & a 3 & 4 &   1 2 3 4   1 2 3 & 4 &

|---------|-----------|---------|-------------|
|-----.-.-|-.-.-.-----|-----.-.-|-----------4-|
|-.-.-0-0-|-2-2-2-2-0-|-.-.-0-0-|-2-2-2-4-5---|
|-0-0-----|-----------|-0-0-----|-------------|
  1 2 3 4   1 2 3 4 &   1 2 3 4   1 2 3 & 4 &

LAST CHORUS/OUTRO:
|-------------|-------------|---------|---------------|
|-------------|-.-.---4-----|-----.-.-|-.-.---------4-|
|-.-.-------.-|-2-2-2---2-5-|-.-.-0-0-|-2-2-2-4-5-----|
|-0-0---3h5-5-|-------------|-0-0-----|---------------|
  1 2 & a 3 4   1 2 3 & 4 &   1 2 3 4   1 2 3 & 4 & a

|---------|-------------|---------|---------|---------|---------|
|-----.-.-|-------------|---------|---------|---------|---------|
|-.-.-0-0-|-2-----0-2-0-|-----0---|-2---2-0-|-----0---|-2---2-0-|
|-0-0-----|-------------|-0-------|---------|-0-------|---------|
  1 2 3 4   1 2 & a 3 4   1 2 3 4   1 2 3 4   1 2 3 4   1 2 3 4

|---------|-------------|---------|-----------------|
|-----.-.-|-.-.---------|-----.-.-|-.-.-------4-----|
|-.-.-0-0-|-2-2-2-4-5-2-|-.-.-0-0-|-2-2---0-2---2-5-|
|-0-0-----|-------------|-0-0-----|-----------------|
  1 2 3 4   1 2 3 & 4 &   1 2 3 4   1 2 & a 3 & 4 &

|---------|---------|
|-----.-.-|---------|
|-.-.-0-0-|-2---2-0-| (fade-out)
|-0-0-----|---------|
  1 2 3 4   1 2 3 4

	  

No existe una video leccione para esta canción

request
LosAcordes
Buscar
auto avanzar rasgueos aumentar disminuir cambiar color esconder acordes gráficos
losacordes exhibir acordes losacordes youTube video losacordes ocultar tabs losacordes ir hacia arriba losacordes