Satanic Surfers

Início > Satanic Su... > acordes

Got To Throw Up Tablatura Bajo

Satanic Surfers

Dificultad:Ningún gradoNingún grado

tarikike

tuner correct add songbook print version text version salvar en e-mail
acordesukuleletablaturabaixobateríaarmónicaflautacavacopiano Guitar Pro
acordes

Got To Throw Up

	  
Intro 
G|---9-10-10-12-12-10-10-9-9------------------------| 
D|---------------------------12-12-9-9--------------| 
A|-7-----------------------------------12-12-10-10--| 
E|--------------------------------------------------| 

G|---9-10-10-12-12-10-10-9-9-------12-9-----| 
D|---------------------------12-12------12--| 
A|-7----------------------------------------| 
E|------------------------------------------| 

G|------------------------------------------------------------7-----------| 
D|-------------9-7-------------------------9-7--------------9---9-7-------| 
A|-7-10-7----7-----10-5>-------7-10-7----7-----10-7-10-7------------10-9--| X 2 
E|--------10-------------3>-5>--------10-----------------10---------------| 

G|-------------9>--------------------7---9>----------------| 
D|----------------9-7--------------7---9----9-7------------| 
A|-6>-9>12----7>-----10-5>-7-9-10-------7>-----10----------| 
E|-------------------------------------------------3>-7>---| 

G|-----------------------7-------------------------| 
D|----9-7--------------7---9----9-7----------------| 
A|-7>-----10-5>-7-9-10-------7>-----10-------------| 
E|-------------------------------------3>-7-7-6-5--| 

Verse    X 2                   X 2              X 3 
G|-----------------|-------|--------------||-------------|-----|| 
D|-----------------|-------|--------------||-------------|-----|| 
A|-7>-----------7>-|-------|-7-7-5--------||-------------|-7>--|| X 2 
E|----7>-8>-10>----|-5>-7>-|-------6-5-3>-||-6-6-5-6-3-3-|-----|| 

 riff     X 2                  X 2 
G|-------------------|--------------------------------| 
D|-------------------|--------------------------------| 
A|-7>-5>-7>----------|-7>-/14-5>-/12-7>-/14-----------| 
E|----------3>-6-5-3-|----------------------3>-6-5-3--| 

verse 2    X 2 
G|-----------------|-------------------------| 
D|-----------------|-------------------------| 
A|-7>-----------7>-|--------7-7-5------------| 
E|----7>-8>-10>----|-8>-10>-------6-5-3>-5>--| 

G|-----------------------------------------------7---------------------| 
D|-------2>-------------------9-7--------------9---9-7-----------------| 
A|-3>-5>----3>-5>-7-10-7----7-----10-7-10-7------------10-9-6>-9>12----| 
E|-----------------------10-----------------10-------------------------| 

  i'm pretty sure this solo is wrong...i don't even think it's close...so what? 
G|----9-10-10-12-12-10-10-9-9----------------------------------------| 
D|----------------------------12-12-10-10-9-9------------------------| 
A|--7-----------------------------------------12-12-10-10------------| 
E|-------------------------------------------------------------------| 

G|----7-8-8-10-10-8-8-7-7-------------------------------------------| 
D|------------------------10-10-8-8-7-7-----------------------------| 
A|--5-----------------------------------10-10-8-8-------------------| 
E|------------------------------------------------------------------| 

G|----9-10-10-12-12-10-10-9-9-12-12-10-10-9-9-------10-10-9-9--------| 
D|--------------------------------------------12-12-----------12-12--| 
A|--7----------------------------------------------------------------| 
E|-------------------------------------------------------------------| 

                   X a lot of times 
G|-----------|-----------------------7--------------------| 
D|-----------|----9-7--------------7---9----9-7-----------| 
A|-----7-6-5-|-7>-----10-5>-7-9-10-------7>-----10--------| 
E|-3-7-------|-------------------------------------3>-7>--| 

 Outro 
G|---------------------7--------------------------------------------| 
D|-------------------7---9------------------------------------------| 
A|----------7-7-9-10---------7--------------------------------------| 
E|--7>-9-10---------------------------------------------------------| 



************************************ 

| /  Slide up 

************************************ 
	  

No existe una video leccione para esta canción

request
LosAcordes
Buscar
auto avanzar rasgueos aumentar disminuir cambiar color esconder acordes gráficos
losacordes exhibir acordes losacordes youTube video losacordes ocultar tabs losacordes ir hacia arriba losacordes