Rata Blanca

Início > Rata Blanc... > acordes

Guerrero del arco iris Tablatura Bajo

Rata Blanca

Dificultad:Ningún gradoNingún grado

afaargentina

tuner correct add songbook print version text version salvar en e-mail
acordesukuleletablaturabaixobateríaarmónicaflautacavacopiano Guitar Pro
acordes

Guerrero del arco iris

	  INTRODUCCIÓN: 

1/------------------------------------------------ 
2/------------------------------------------------ 
3/--------------------5--------------------------- 
4/----5-----1-------------1---------5------------- 

PUENTE: 

1/------------------------------------------------ 
2/------------------------------------------------ 
3/------------------------------------------------ 
4/--2--------------------------------------------- 

ESTRIBILLO: 

1/------------------------------------------------ 
2/------------------------------------------------ 
3/---7---5--------7--------4--5---6--------------- 
4/------------5--------2-------------------------- 


A lo de arriba lo repite por 2. 

NOTA:	Como en todos los temas de Rata Blanca,  
	el bajo se mantiene mucho tiempo en un tono,  
	por lo que es tedioso poner cifras como (x150).  
	por lo 	que te pongo el tono, y teniendo un poco  
	de 'oído musical', sacás en que momento tenés que  
	cambiar de tono. 

	  

No existe una video leccione para esta canción

request
LosAcordes
Buscar
auto avanzar rasgueos aumentar disminuir cambiar color esconder acordes gráficos
losacordes exhibir acordes losacordes youTube video losacordes ocultar tabs losacordes ir hacia arriba losacordes