Paralamas do Sucesso

Início > Paralamas ... > acordes

O Calibre Tablatura Bajo

Paralamas do Sucesso

Dificultad:PrincipiantePrincipiante

KURT CONBAI

tuner correct add songbook print version text version salvar en e-mail
acordesukuleletablaturabaixobateríaarmónicaflautacavacopiano Guitar Pro
acordes

O Calibre

Áño: 2002 - Álbum: Longo Caminho

Tono:  E
	    
B = Bend 
 
 
Introduçao: 
 
G -------------------------------------------------------------------- 
D -------------------------------------------------------------------- 
A -19--17--16--17--19------------------------------------------------- 
E -------------------------------------------------------------------- 
 
G -------------------------------------------------------------------- 
D -------------------------------------------------------------------- 
A -19--17--16--17--19--\19-------------------------------------------- 
E -------------------------------------------------------------------- 
8x: 
G -------------------------------------------------------------------- 
D -------------------------------------------------------------------- 
A --------5/7--------7--5-----5--------------------------------------- 
E -0--0--------5/7---------7-----7--5B-------------------------------- 
 
G -------------------------------------------------------------------- 
D -------------------------------------------------------------------- 
A --0---0----0---0----0---0---0--0--0--------------------------------- 
E -------------------------------------------------------------------- 
 
8x: 
G -------------------------------------------------------------------- 
D -------------------------------------------------------------------- 
A --------5/7--------7--5-----5--------------------------------------- 
E -0--0--------5/7---------7-----7--5B-------------------------------- 
 
G -------------------------------------------------------------------- 
D -------------------------------------------------------------------- 
A --0---0----0---0----0---0---0--0--0--------------------------------- 
E -------------------------------------------------------------------- 
 
(2x)Refrão: 
G -------------------------------------------------------------------- 
D -------------------------------------------------------------------- 
A -------------5--5--5--5--4-4-4-4-----5--5--5--5--------------------- 
E -0--0--0--0---------------------------------------------0-0-0-0----- 
 
Depois disso tem a parada da guitarra... a hora q der o som da caixa você toca: 
 
G -------------------------------------------------------------------- 
D -------------------------------------------------------------------- 
A -------------------------------------------------------------------- 
E ------------------4------------------------------------------------- 
 
O resto é igual é só vc acompanhar a música...!! 
 
Se houver algum problema é só mandar um e-mail pra mim...;) 
	  

No existe una video leccione para esta canción

request
LosAcordes
Buscar
auto avanzar rasgueos aumentar disminuir cambiar color esconder acordes gráficos
losacordes exhibir acordes losacordes youTube video losacordes ocultar tabs losacordes ir hacia arriba losacordes