Lcd Soundsystem

Início > Lcd Sounds... > acordes

Freak Out Starry Eyes Tablatura Bajo

Lcd Soundsystem

Dificultad:Ningún gradoNingún grado

LINEKERS

tuner correct add songbook print version text version salvar en e-mail
acordesukuleletablaturabaixobateríaarmónicaflautacavacopiano Guitar Pro
acordes

Freak Out Starry Eyes

	  
Verse: enter at 1:41 

G|-----------------|-----------------|-----------------|-----------------| 
D|-2---------------|-2---------------|-2---------------|-2---------------| 
A|-----------------|-----------------|-----------------|-----------------| 
E|-------------5\0-|-------------5\0-|-------------5\0-|-------------5\0-| 

G|-----------------|-----------------|-----------------|-----------------| 
D|-2---------------|-----------------|-----------------|-------------9\--| 
A|-----------------|-----------------|-----------------|-----------------| 
E|-----------------|-----------------|-----------------|-----------------| 


Chorus 

G|--------------------|-----------------|-------------------|-----------------| 
D|------------------5-|-----------------|-----------------5-|-----------------| 
A|----5--7-----7-5h7--|----5--7----7--7-|----5--7----7-5h7--|----5--7----5--7-| 
E|-0-------0----------|-0-------0-------|-0-------0---------|-0-------0-------| 

G|--------------------|-----------------|-------------------|-------------------| 
D|------------------5-|-----------------|-----------------5-|-------------------| 
A|----5--7-----7-5h7--|----5--7----5--5-|----5--7----7-5h7--|----5--7-5-5-5h6-7-| 
E|-0-------0----------|-0-------0-------|-0-------0---------|-0-----------------| 


Verse 

G|-----------------|-----------------|-------------------|--------------------| 
D|---------------5-|---------------5-|-----------------5-|------------------5-| 
A|----5--7----5-0--|----5--7----5-0--|----5--7----7-5----|----5--7-----7-5h7--| 
E|-0-------0-------|-0-------0-------|-0-------0---------|-0-------0----------| 

G|--------------------|--------------------|-------------------|-----------------| 
D|------------------5-|------------------5-|-----------------5-|-----------------| 
A|----5--7-----7-5h7--|----5--7-----7-5h7--|----5--7----7-5h7--|----5--7----7--7-| 
E|-0-------0----------|-0-------0----------|-0-------0---------|-0-------0-------| 


Instrumental 

G|--------------------|-----------------|--------------------|-----------------| 
D|------------------5-|-----------------|------------------5-|-----------------| 
A|----5--7-----7-5h7--|----5--7---------|----5--7-----7-5h7--|----5--7----7--7-| 
E|-0-------0----------|-0-------0--0--0-|-0-------0----------|-0-------0-------| 

G|--------------------|-----------------|--------------------|-----------------| 
D|------------------5-|-----------------|------------------5-|-----------------| 
A|----5--7-----7-5h7--|----5--7-------7-|----5--7-----7-5h7--|----5--7---------| 
E|-0-------0----------|-0-------0--0----|-0-------0----------|-0-------0--0--0-| 

G|--------------------|-----------------|--------------------|-----------------| 
D|------------------5-|-----------------|------------------5-|-----------------| 
A|----5--7-----7-5h7--|----5--7----5--7-|----5--7-----7-5h7--|----5--7-------7-| 
E|-0-------0----------|-0-------0-------|-0-------0----------|-0-------0--0----| 

G|--------------------|--------------------|--------------------|-----------------| 
D|------------------5-|------------------5-|------------------5-|-----------------| 
A|----5--7-----7---5--|----5--7-----7-5h7--|----5--7-----7-5h7--|----5--7----5--7-| 
E|-0-------0----------|-0-------0----------|-0-------0----------|-0-------0-------| 

G|--------------------|-----------------|--------------------|--------------------| 
D|------------------5-|-----------------|------------------5-|------------------5-| 
A|----5--7-----7---5--|----5--7----5--5-|----5--7-----7-5h7--|----5--7-----7-5h7--| 
E|-0-------0----------|-0-------0-------|-0-------0----------|-0-------0----------| 

G|--------------------|--------------------|--------------------|-----------------| 
D|------------------5-|------------------5-|------------------5-|-----------------| 
A|----5--7-----7-5h7--|----5--7-----7-5h7--|----5--7-----7-5h7--|----5--7----5--4-| 
E|-0-------0----------|-0-------0----------|-0-------0----------|-0-------0-------| 

G|-----------------|-----------------|-----------------|-------------------| 
D|-----------------|-----------------|-----------------|-------------------| 
A|----5--7----5--7-|----5--7----5--7-|----5--7----5--7-|----5--7-5--5--5h7-| 
E|-0-------0-------|-0-------0-------|-0-------0-------|-0-----------------| 

G|-----------------|-----------------|-----------------|-------------------| 
D|-----------------|-----------------|-----------------|-------------------| 
A|----5--7----5--7-|----5--7----5--7-|----5--7----5--7-|----5--7-5--5--5h7-| 
E|-0-------0-------|-0-------0-------|-0-------0-------|-0-----------------| 


Chorus 

G|--------------------|-------------------|-------------------|-------------------| 
D|------------------5-|-------------------|-----------------5-|-------------------| 
A|----5--7-----7-5h7--|----5--7-5--5--5h7-|----5--7----7-5h7--|----5--7-5-5-5-5h7-| 
E|-0-------0----------|-0-----------------|-0-------0---------|-0-----------------| 

G|-----------------|-----------------|-----------------|-------------------| 
D|-----------------|-----------------|-----------------|-------------------| 
A|----5--7----5--7-|----5--7----5--5-|----5--7----5--7-|----5--7-5--5--5h7-| 
E|-0-------0-------|-0-------0-------|-0-------0-------|-0-----------------| 


Verse 

G|-----------------|-----------------|-----------------|-------------------| 
D|-----------------|-----------------|-----------------|-------------------| 
A|----5--7----5--7-|----5--7-5--5--5-|----5--7----5--7-|----5--7-5--5-5--5-| 
E|-0-------0-------|-0---------------|-0-------0-------|-0-----------------| 

G|--------------------|-------------------|-------------------|-------------------| 
D|------------------5-|-------------------|-----------------5-|-------------------| 
A|----5--7-----7-5h7--|----5--7-5--5--5h7-|----5--7----7-5h7--|----5--7-5--5--5h7-| 
E|-0-------0----------|-0-----------------|-0-------0---------|-0-----------------| 


Break: Open E softly held throughout break 

G|-----------------|-----------------|-----------------|-----------------| 
D|-----------------|-----------------|-----------------|-----------------| 
A|-----------------|-----------------|-----------------|-----------------| 
E|-0---------------|-----------------|-----------------|-----------------| 

G|-----------------|-----------------|-----------------|-----------------| 
D|-----------------|-----------------|-----------------|-----------------| 
A|-----------------|-----------------|-----------------|-------------5/7-| 
E|-----------------|-----------------|-----------------|-----------------| 

G|-----------------|-----------------|-----------------|-----------------| 
D|-----------------|-----------------|-----------------|-----------------| 
A|-----------------|-----------------|-----------------|-------------5/7-| 
E|-----------------|-----------------|-----------------|-----------------| 

G|-----------------|-----------------|-----------------|-----------------| 
D|-----------------|-----------------|-----------------|-----------------| 
A|-----------------|-----------------|-----------------|-------------5/7-| 
E|-----------------|-----------------|-----------------|-----------------| 


Synth Enters 

G|--------------------|-----------------|--------------------|-----------------| 
D|------------------5-|-----------------|------------------5-|-----------------| 
A|----5--7-----7-5h7--|----5--7----5--7-|----5--7-----7-5h7--|----5--7-------7-| 
E|-0-------0----------|-0-------0-------|-0-------0----------|-0-------0--0----| 

G|--------------------|--------------------|--------------------|-----------------| 
D|------------------5-|------------------5-|------------------5-|-----------------| 
A|----5--7-----7-5h7--|----5--7-----7-5h7--|----5--7-----7-5h7--|----5--7----5--7-| 
E|-0-------0----------|-0-------0----------|-0-------0----------|-0-------0-------| 

G|--------------------|-----------------|--------------------|--------------------| 
D|------------------5-|-----------------|------------------5-|------------------5-| 
A|----5--7-----7-5h7--|----5--7----5--5-|----5--7-----7-5h7--|----5--7-----7-5h7--| 
E|-0-------0----------|-0-------0-------|-0-------0----------|-0-------0----------| 

G|--------------------|-----------------|--------------------|-----------------| 
D|------------------5-|---------------5-|------------------5-|-----------------| 
A|----5--7-----7-5h7--|----5--7---------|----5--7-----7-5h7--|----5--7----5--5-| 
E|-0-------0----------|-0-------0--0----|-0-------0----------|-0-------0-------| 


Chorus 

G|--------------------|-----------------|--------------------|-------------------| 
D|------------------5-|---------------5-|------------------5-|-------------------| 
A|----5--7-----7-5h7--|----5--7----5----|----5--7-----7-5h7--|----5--7-5--5--5h7-| 
E|-0-------0----------|-0-------0-------|-0-------0----------|-0-----------------| 

G|--------------------|---------------------|--------------------|-----------------| 
D|------------------5-|---------------------|------------------5-|-----------------| 
A|----5--7-----7-5h7--|----5--7-5--5-5--5h7-|----5--7-----7-5h7--|----5--7-5--5--5-| 
E|-0-------0----------|-0-------------------|-0-------0----------|-0---------------| 


Verse 

G|--------------------|-------------------|-------------------|-------------------| 
D|------------------5-|-------------------|-----------------5-|-------------------| 
A|----5--7-----7-5h7--|----5--7-5--5--5h7-|----5--7----7-5h7--|----5--7-5-5-5-5h7-| 
E|-0-------0----------|-0-----------------|-0-------0---------|-0-----------------| 

G|--------------------|-----------------|-------------------|-----------------| 
D|------------------5-|-----------------|-----------------5-|-----------------| 
A|----5--7-----7-5h7--|----5--7----5--7-|----5--7----7-5h7--|----5--7-------7-| 
E|-0-------0----------|-0-------0-------|-0-------0---------|-0-------0--0----| 


Drum Solo 

No Bass 

Starry Eyes Begins at 8:15 

Intro 

No Bass 

Verse: enter at 8:55 

G|-----------------|-----------------|-----------------|-----------------| 
D|---4-------------|---4-------------|---4-------------|---4-------------| 
A|------4----------|------4----------|------4----------|------4----------| 
E|-------------4\--|-------------4\--|-------------4\--|-------------4\--| 

G|-----------------|-----------------|-----------------|-----------------| 
D|---4-------------|---4-------------|---4-------------|---4-------------| 
A|------4----------|------4----------|------4----------|------4----------| 
E|---------------4-|-------------4\--|---------------4-|---------------4-| 

G|-----------------|-----------------|-----------------|-----------------| 
D|---4-------------|---4-------------|---4-------------|---4-------------| 
A|------4----------|------4----------|------4----------|------4---------5| 
E|---------------4-|-------------4\--|--------------4--|-------------4\--| 

G|-----------------|-----------------|-----------------|-----------------| 
D|---4-------------|---4-------------|---4-------------|---4-------------| 
A|------4----------|------4----------|------4----------|------4----------| 
E|---------------4-|-------------4\--|---------------4-|---------------4-| 


Chorus 

G|-----------------|-----------------|-----------------|-----------------| 
D|---4-------------|---4-------------|---4-------------|---4-------------| 
A|------4----------|------4----------|------4----------|------4----------| 
E|---------------4-|-------------4\--|---------------4-|-------------4\--| 

G|-----------------|-----------------|-----------------|-----------------| 
D|---4-------------|---4-------------|---4-------------|---4-------------| 
A|------4----------|------4----------|------4----------|------4----------| 
E|---------------4-|-------------4\--|---------------4-|---------------4-| 


Instrumental 

G|-----------------|-----------------|-----------------|-----------------| 
D|---4-------------|---4-------------|---4-------------|---4-------------| 
A|------4----------|------4----------|------4----------|------4----------| 
E|---------------4-|---------------4-|---------------4-|---------------4-| 

G|-----------------|-----------------|-----------------|-----------------| 
D|---4-------------|---4-------------|---4-------------|---4-------------| 
A|------4----------|------4----------|------4----------|------4----------| 
E|---------------4-|---------------4-|---------------4-|---------------4-| 


Verse 

G|-----------------|-----------------|-----------------|-----------------| 
D|---4-------------|---4-------------|---4-------------|---4-------------| 
A|------4----------|------4----------|------4----------|------4---------5| 
E|---------------4-|-------------4\--|--------------4--|-------------4\--| 

G|-----------------|-----------------|-----------------|-----------------| 
D|---4-------------|---4-------------|---4-------------|---4-------------| 
A|------4----------|------4----------|------4----------|------4----------| 
E|---------------4-|-------------4\--|---------------4-|---------------4-| 


Trumpet Instrumental 

G|-----------------|-----------------|-----------------|-----------------| 
D|---4-------------|---4-------------|---4-------------|---4-------------| 
A|------4----------|------4----------|------4----------|------4---------5| 
E|---------------4-|-------------4\--|---------------4-|-------------4\--| 

G|-----------------|-----------------|-----------------|-----------------| 
D|---4-------------|---4-------------|---4-------------|---4-------------| 
A|------4----------|------4----------|------4----------|------4----------| 
E|---------------4-|-------------4\--|---------------4-|---------------4-| 

G|--------------------|--------------------|--------------------|--------------------| 
D|--------------------|--------------------|--------------------|--------------------| 
A|---7---4-6-6--------|---7---4-6-6--------|---7---4-6-6--------|---7---4-6-6--------| 
E|----4-6-----------4-|----4-6---------4\--|----4-6-----------4-|----4-6---------4\--| 


Chorus 

G|-----------------|-----------------|-----------------|-----------------| 
D|---4-------------|---4-------------|---4-------------|---4-------------| 
A|------4----------|------4----------|------4----------|------4----------| 
E|---------------4-|-------------4\--|---------------4-|---------------4-| 


Verse 

G|--------------------|--------------------|--------------------|--------------------| 
D|--------------------|--------------------|--------------------|--------------------| 
A|---7---4-6-6--------|---7---4-6-6--------|---7---4-6-6--------|---7---4-6-6--------| 
E|----4-6-----------4-|----4-6---------4\--|----4-6-----------4-|----4-6---------4\--| 

G|--------------------|--------------------|--------------------|--------------------| 
D|--------------------|--------------------|--------------------|--------------------| 
A|---7---4-6-6--------|---7---4-6-6--------|---7---4-6-6--------|---7---4-6-6--------| 
E|----4-6-----------4-|----4-6---------4\--|----4-6-----------4-|----4-6-----------4-| 


Instrumental 

G|-----------------|-----------------|-----------------|-----------------| 
D|---4-------------|---4-------------|---4-------------|---4-------------| 
A|------4----------|------4----------|------4----------|------4---------5| 
E|---------------4-|-------------4\--|---------------4-|-------------4\--| 

G|--------------------|--------------------|--------------------|--------------------| 
D|--------------------|--------------------|--------------------|--------------------| 
A|---7---4-6-6--------|---7---4-6-6--------|---7---4-6-6--------|---7---4-6-6--------| 
E|----4-6-----------4-|----4-6---------4\--|----4-6-----------4-|----4-6-----------4-| 


Chorus 

G|-----------------|-----------------|-----------------|-----------------| 
D|---4-------------|---4-------------|---4-------------|---4-------------| 
A|------4----------|------4----------|------4----------|------4----------| 
E|---------------4-|-------------4\--|---------------4-|-------------4\--| 

G|-----------------|-----------------|-----------------|-----------------| 
D|---4-------------|---4-------------|---4-------------|---4-------------| 
A|------4----------|------4----------|------4----------|------4----------| 
E|---------------4-|-------------4\--|---------------4-|---------------4-| 



Well I hope you enjoy it. I did the best I could. Let me know if you have corrections. 
It may not be accurate at all for Starry Eyes, so I'd appreciate feedback. 

************************************ 

| h   Hammer-on 
| /   Slide up 
| \   Slide down 

************************************ 
	  

No existe una video leccione para esta canción

request
LosAcordes
Buscar
auto avanzar rasgueos aumentar disminuir cambiar color esconder acordes gráficos
losacordes exhibir acordes losacordes youTube video losacordes ocultar tabs losacordes ir hacia arriba losacordes