Juanes

Início > Juanes > acordes

Sueños Tablatura Bajo

Juanes

Dificultad:Ningún gradoNingún grado

jov-correa

tuner correct add songbook print version text version salvar en e-mail
acordesukuleletablaturabaixobateríaarmónicaflautacavacopiano Guitar Pro
acordes

Sueños

Áño: 2004 - Álbum: Mi Sangre

Tono:  G
	  Intro 
G|-------------------------------------| 
D|-------------------------------------| 
A|------------------5-5-5-5-5-5-5-5-5--| 
E|--3-3-3-3--5-5-5---------------------| 

G|---------------------------------| 
D|---------------------------------| 
A|--7-7-7-7------------------------| 
E|-----------6-6-6--5-5-5-5-5-5-5--| 

G|-------------------------------------| 
D|-------------------------------------| 
A|------------------5-5-5-5-5-5-5-5-5--| 
E|--3-3-3-3--5-5-5---------------------| 

G|-------------------------------| 
D|-------------------------------| 
A|-------------------------------| 
E|--3-3-3-3-3-3-3-5-5-5-5-5-5-5--| 

Verse 
Sueño libertad  
G|-------------------------------------| 
D|-------------------------------------| 
A|------------------5-5-5-5-5-5-5-5-5--| 
E|--3-3-3-3--5-5-5---------------------| 

para todos los que están 
G|---------------------------------| 
D|---------------------------------| 
A|--7-7-7-7------------------------| 
E|-----------6-6-6--5-5-5-5-5-5-5--| 

Secuestrados hoy 
G|-------------------------------------| 
D|-------------------------------------| 
A|------------------5-5-5-5-5-5-5-5-5--| 
E|--3-3-3-3--5-5-5---------------------| 

en medio de la selva 
G|-------------------------------| 
D|-------------------------------| 
A|-------------------------------| 
E|--3-3-3-3-3-3-3-5-5-5-5-5-5-5--| 

Y sueño con la paz  
G|-------------------------------------| 
D|-------------------------------------| 
A|------------------5-5-5-5-5-5-5-5-5--| 
E|--3-3-3-3--5-5-5---------------------| 

de mi pueblo desangrado 
G|---------------------------------| 
D|---------------------------------| 
A|--7-7-7-7------------------------| 
E|-----------6-6-6--5-5-5-5-5-5-5--| 

Y con el final 
G|-------------------------------------| 
D|-------------------------------------| 
A|------------------5-5-5-5-5-5-5-5-5--| 
E|--3-3-3-3--5-5-5---------------------| 

de esta injusta guerra 
G|-------------------------------| 
D|-------------------------------| 
A|-------------------------------| 
E|--3-3-3-3-3-3-3-5-5-5-5-5-5-5--| 

Pre-Chorus 
Sueño con tantas cosas que 
G|----------------------------------| 
D|----------------------------------| 
A|--1-1-1-1-1-1-1-1-----------------| 
E|-------------------1-1-1-1-1-1-1--| 

quiero que sean realidad 
G|-----------------------------------------------------| 
D|-----------------------------------------------------| 
A|-------------------5-5-5-5-5-5-5-5--6-6-6-6-6-6-6-6--| 
E|--3-3-3-3-3-3-3-3------------------------------------| 

sueño con morir de viejo y no de soledad 
G|-----------------------------------------------------| 
D|-----------------------------------------------------| 
A|--1-1-1-1-1-1-1-1--3-3-3-3-3-3-3-3-------------------| 
E|------------------------------------1-1-1-1-1-1-1-1--| 

sueño con ir a trabajar 
G|----------------------------------| 
D|----------------------------------| 
A|--1-1-1-1-1-1-1-1-----------------| 
E|-------------------1-1-1-1-1-1-1--| 

y mucho más con regresar 
G|-----------------------------------------------------| 
D|-----------------------------------------------------| 
A|-------------------5-5-5-5-5-5-5-5--6-6-6-6-6-6-6-6--| 
E|--3-3-3-3-3-3-3-3------------------------------------| 

cada noche a mi casa 
G|----------------------------------------------------| 
D|----------------------------------------------------| 
A|--1-1-1-1-1-1-1-1--3-3-3-3-3-3-3-3-3-3-3-3-3-3-3-3--| 
E|----------------------------------------------------| 

para estar junto a ti 
G|-----------------------------------| 
D|-----------------------------------| 
A|-----------------------------------| 
E|--1-1-1-1-1-1-1-1-1-1-1-1-1-1-1-1--| 

Chorus 
y que no muera nunca nuestro amor 
eso sueño yo 
G|-----------------------------------------------------| 
D|-----------------------------------------------------| 
A|--1-1-1-1-1-1-1-1------------------------------------| 
E|-------------------4-4-4-4-4-4-4-4--6-6-6-6-6-6-6-6--| 

G|-------------------| 
D|-------------------| 
A|-------------------| 
E|--8-8-8-8-8-8-8-8--| 

y que se fundan balas para hacer 
campanas de libertad 
G|-----------------------------------------------------| 
D|-----------------------------------------------------| 
A|--1-1-1-1-1-1-1-1-------------------6-6-6-6-6-6-6-6--| 
E|-------------------4-4-4-4-4-4-4-4-------------------| 

G|-------------------| 
D|-------------------| 
A|-------------------| 
E|--1-1-1-1-1-1-1-1--| 

y que no muera nunca nuestro amor 
eso sueño yo 
G|-----------------------------------------------------| 
D|-----------------------------------------------------| 
A|--1-1-1-1-1-1-1-1-------------------6-6-6-6-6-6-6-6--| 
E|-------------------4-4-4-4-4-4-4-4-------------------| 

G|-----------------------------------------------| 
D|-----------------------------------------------| 
A|---------------6-6-6-6--5-5-5-5--3-3-3-3-------| 
E|--1-1-1-1-1-1-----------------------------1----| 

Intro 2 
G|-------------------------------------| 
D|-------------------------------------| 
A|------------------5-5-5-5-5-5-5-5-5--| 
E|--3-3-3-3--5-5-5---------------------| 

G|---------------------------------| 
D|---------------------------------| 
A|--7-7-7-7------------------------| 
E|-----------6-6-6--5-5-5-5-5-5-5--| 

G|-------------------------------------| 
D|-------------------------------------| 
A|------------------5-5-5-5-5-5-5-5-5--| 
E|--3-3-3-3--5-5-5---------------------| 

G|-------------------------------| 
D|-------------------------------| 
A|-------------------------------| 
E|--3-3-3-3-3-3-3-5-5-5-5-5-5-5--| 

verse 2 
Sueño despertar 
G|-------------------------------------| 
D|-------------------------------------| 
A|------------------5-5-5-5-5-5-5-5-5--| 
E|--3-3-3-3--5-5-5---------------------| 

en un mundo sin dolor 

pa'que el corazón 
G|-------------------------------------| 
D|-------------------------------------| 
A|------------------5-5-5-5-5-5-5-5-5--| 
E|--3-3-3-3--5-5-5---------------------| 

no sufra más las penas 
G|---------------------------------| 
D|---------------------------------| 
A|--7-7-7-7------------------------| 
E|-----------6-6-6--5-5-5-5-5-5-5--| 

y sueño caminar 
G|-------------------------------------| 
D|-------------------------------------| 
A|------------------5-5-5-5-5-5-5-5-5--| 
E|--3-3-3-3--5-5-5---------------------| 

por las calles de mi país 
G|---------------------------------| 
D|---------------------------------| 
A|--7-7-7-7------------------------| 
E|-----------6-6-6--5-5-5-5-5-5-5--| 

y solo encontrar paz  
G|---------------------------------------| 
D|---------------------------------------| 
A|------------------5-5-5-5-5-5-5-5------| 
E|--3-3-3-3--5-5-5------------------3----| 

Pre-Chorus 2 
 Sueño con tantas cosas que 
G|----------------------------------| 
D|----------------------------------| 
A|--1-1-1-1-1-1-1-1-----------------| 
E|-------------------1-1-1-1-1-1-1--| 

quiero que sean realidad 
G|-----------------------------------------------------| 
D|-----------------------------------------------------| 
A|-------------------5-5-5-5-5-5-5-5--6-6-6-6-6-6-6-6--| 
E|--3-3-3-3-3-3-3-3------------------------------------| 

sueño con morir de viejo y no de soledad 
G|-----------------------------------------------------| 
D|-----------------------------------------------------| 
A|--1-1-1-1-1-1-1-1--3-3-3-3-3-3-3-3-------------------| 
E|------------------------------------1-1-1-1-1-1-1-1--| 

sueño con ir a trabajar 
G|----------------------------------| 
D|----------------------------------| 
A|--1-1-1-1-1-1-1-1-----------------| 
E|-------------------1-1-1-1-1-1-1--| 

y mucho más con regresar 
G|-----------------------------------------------------| 
D|-----------------------------------------------------| 
A|-------------------5-5-5-5-5-5-5-5--6-6-6-6-6-6-6-6--| 
E|--3-3-3-3-3-3-3-3------------------------------------| 

cada noche a mi casa 
G|----------------------------------------------------| 
D|----------------------------------------------------| 
A|--1-1-1-1-1-1-1-1--3-3-3-3-3-3-3-3-3-3-3-3-3-3-3-3--| 
E|----------------------------------------------------| 

para estar junto a ti 
G|-----------------------------------| 
D|-----------------------------------| 
A|-----------------------------------| 
E|--1-1-1-1-1-1-1-1-1-1-1-1-1-1-1-1--| 

Outro 
y que no muera nunca nuestro amor 
eso sueño yo 
G|-----------------------------------------------------| 
D|-----------------------------------------------------| 
A|--1-1-1-1-1-1-1-1------------------------------------| 
E|-------------------4-4-4-4-4-4-4-4--6-6-6-6-6-6-6-6--| 

G|-------------------| 
D|-------------------| 
A|-------------------| 
E|--8-8-8-8-8-8-8-8--| 

y que se fundan balas para hacer 
campanas de libertad 
G|-----------------------------------------------------| 
D|-----------------------------------------------------| 
A|--1-1-1-1-1-1-1-1-------------------6-6-6-6-6-6-6-6--| 
E|-------------------4-4-4-4-4-4-4-4-------------------| 

G|-------------------| 
D|-------------------| 
A|-------------------| 
E|--1-1-1-1-1-1-1-1--| 

y que no muera nunca nuestro amor 
eso sueño yo 
G|-----------------------------------------------------| 
D|-----------------------------------------------------| 
A|--1-1-1-1-1-1-1-1-------------------6-6-6-6-6-6-6-6--| 
E|-------------------4-4-4-4-4-4-4-4-------------------| 

G|-----------------------------------------------| 
D|-----------------------------------------------| 
A|---------------6-6-6-6--5-5-5-5--3-3-3-3-------| 
E|--1-1-1-1-1-1-----------------------------1----| 
	  

No existe una video leccione para esta canción

request
LosAcordes
Buscar
auto avanzar rasgueos aumentar disminuir cambiar color esconder acordes gráficos
losacordes exhibir acordes losacordes youTube video losacordes ocultar tabs losacordes ir hacia arriba losacordes