Gary Moore

Início > Gary Moore > acordes

Still got the Blues Tablatura Bajo

Gary Moore

Dificultad:ExpertoExperto

tuner correct add songbook print version text version salvar en e-mail
acordesukuleletablaturabaixobateriaarmónicaflautacavacopiano Guitar Pro
acordes

Still got the Blues

Tono:  Dm7
	  



Standard Tunning

Intro:
-------------------------------------------------------
------------------3-2-----2~---------------------------
--5~------3~----------2~-------2-------7------------7--
------3~------1~-----------------3-5~----8-5----5-8----

"used to be so easy..."
-------------------------------------------------------
-------5~------3~--3-2-----2~--------------------------
--5~-------3~----------2~------2-----------------7-----
---------------------------------3-5~-7~-8~--5-8-------

-------------------------------------------------------
------5~------3~--3-2----------------------------------
--5~------3~----------2~--2~---------------------------
------------------------------0-0-0-0-0-0-0-0-0-0-0-3--

"so long..."
-------------------------------------------------------
-------------------------------------------------------
----------------5~--------------5h7------------7-------
--5~--0~--3-5~------1~--0~--5~------8-5----5-8---------

"used to be so easy..."
-------------------------------------------------------
-------5~------3~--3-2-----2~--------------------------
--5~-------3~----------2~------2-----------------7-----
---------------------------------3-5~-7~-8~--5-8-------

-------------------------------------------------------
------5~------3~--3-2----------------------------------
--5~------3~----------2~--2~---------------------------
------------------------------0-0-0-0-0-0-0-0-0-0-0-3--

"so long..."
-------------------------------------------------------
-------------------------------------------------------
----------------5~-------------------------------------
--5~--0~--3-5~------1~--0~--5~--5~--5-6----------------

"so many years..."
-------------------------------------------------------
-------------------------------------------------------
------7~--2--------------------------------------------
--7~--------3-5~-7~-8~--5-6----------------------------

-------------------------------------------------------
-------------------------------------------------------
------7~--7-8~-7~-5~------7------------7---------------
--7~------------------5~----8-5----5-8-----------------

solo
-------------------------------------------------------
-------5~------3~--3-2-----2~--------------------------
--5~-------3~----------2~------2-----------------7-----
---------------------------------3-5~-7~-8~--5-8-------

-------------------------------------------------------
------5~------3~--3-2----------------------------------
--5~------3~----------2~--2~----------------------2----
------------------------------0-0-0-0-0-0-0-0-0-0---3--

"so long..."
-------------------------------------------------------
-------------------------------------------------------
----------------5~----------------2--------------------
--5~--0~--3-5~------1~--0~--5~------3------------------

-------------------------------------------------------
-------------------------------------------------------
----------------5~-------------------------------------
--5~----0~--3-5~------1~~--0~~-------------------------

intro						                                              _ 
-------------------------------------------------------     |
------------------3-2-----2~---------------------------     |
--5~------3~----------2~-------2-----------------7-----     |
------3~------1~-----------------3-5~-7~-8~--5-8-------     |
   				        x 3
-------------------------------------------------------     |
------------------3-2-----2~---------------------------     | 
--5~------3~----------2~-------2-------7------------7--     |
------3~------1~-----------------3-5~----8-5----5-8----    _|

-------------------------------------------------------
------------------3-2-----2~---------------------------
--5~------3~----------2~-------2-----------------7-----
------3~------1~-----------------3-5~-7~-8~--5-8-------

-------------------------------------------------------
------------------3-2----------------------------------
--5~------3~----------2~-------------------------------
------3~------1~----------0~~----5~~-------------------

	  

No existe una video leccione para esta canción

request
LosAcordes
Buscar
auto avanzar rasgueos aumentar disminuir cambiar color esconder acordes gráficos
losacordes exhibir acordes losacordes youTube video losacordes ocultar tabs losacordes ir hacia arriba losacordes