Dead Kennedys

Início > Dead Kenne... > acordes

Buzzbomb From Pasadena Tablatura Bajo

Dead Kennedys

Dificultad:Ningún gradoNingún grado

aleffederico

tuner correct add songbook print version text version salvar en e-mail
acordesukuleletablaturabaixobateríaarmónicaflautacavacopiano Guitar Pro
acordes

Buzzbomb From Pasadena

	  
Intro (0:06) 
G|----------------------------| 
D|----------------------------| 
A|---665--665------665--665---| x2 
E|-33---33---6---33---33---6--| 


Fill (0:32, 1:03, 1:32) 
G|--------------| 
D|--------------| 
A|---665--665---| x2 (x3 at 1:32) 
E|-33---33---6--| 


Verse (0:12, 0:35, 1:05, 1:50) 
G|--------------------------------------------------| 
D|--------------------------------------------------| 
A|---776--776----776--776----665--665----665--665---| x2 
E|-44---44---7-44---44---7-33---33---6-33---33---6--| 


chorus (0:26, 0:49, 1:19, 2:03) 
G|----------------------------------------------| 
D|----------------------------------------------| 
A|---10109-------998-------10109-------998------| 
E|-77-----7777-66---6666-77-----7777-66---6666--| 

(after 2nd chorus only) 
G|------------------------------------------| 
D|---887-------665-------554----------------| 
A|-55---5555-33---3333-22---2222-000000000--| 
E|------------------------------------------| 


Pre-guitar solo (1:26) 
G|----------------------------------------| 
D|---887-------665-------554--------------| 
A|-55---5555-33---3333-22---2222-0000000--| 
E|----------------------------------------| 


Guitar solo (1:36) 
G|----------------------------------------------------------------------------------| 
D|-------------554-------665-------554-----------------887-------665----------------| 
A|---665-----22---2222-33---3333-22---2222---665-----55---5555-33---3333-222222222--| 
E|-33---3333-------------------------------33---3333--------------------------------| 


Outro (2:10) 
G|------------------------------------------| 
D|------------------------------------------| 
A|---665-------665-------665---------665----| 
E|-33---3~---33---3~---33---3~-----33---3~--| 



************************************ 

| ~  vibrato 

************************************
 
	  

No existe una video leccione para esta canción

request
LosAcordes
Buscar
auto avanzar rasgueos aumentar disminuir cambiar color esconder acordes gráficos
losacordes exhibir acordes losacordes youTube video losacordes ocultar tabs losacordes ir hacia arriba losacordes