David Bowie

Início > David Bowi... > acordes

Blue Jean Tablatura Bajo

David Bowie

Dificultad:Ningún gradoNingún grado

tarikike

tuner correct add songbook print version text version salvar en e-mail
acordesukuleletablaturabaixobateríaarmónicaflautacavacopiano Guitar Pro
acordes

Blue Jean

Áño: 1984 - Álbum: Best of David Bowie

	  
G|----------------| 
D|----------------| 
A|-3-3-3----------| 
D|-----------5-5--| 

verse 1 (Blue Jean-I just met..) 
G|----------------|----------------|----------------|----------------| 
D|----------------|----------------|----------------|----------------| 
A|----------------|----------------|----------------|----------------| 
D|-0-0-0-0-0-0-0-0|-0-0-0-0-0-0-0-0|-0-0-0-0-0-0-0-0|-0-0-0-0-0-0-0-0| 

G|----------------|----------------|----------------|----------------| 
D|----------------|----------------|----------------|----------------| 
A|----------------|----------------|----------------|----------------| 
D|-0-0-0-0-0-0-0-0|-5-5-5-5-5-5-5-5|-5-5-5-5-5-5-5-5|-5-5-5-5-5-5-5-5| 

G|----------------|----------------|----------------|----------------| 
D|----------------|----------------|----------------|----------------| 
A|----------------|----------------|----------------|----------------| 
D|-5-5-5-5-5-5-5-5|-5-5-5-5-5-5-5-5|-5-5-5-5-5-5-5-5|-0-0-0-0-0-0-0-0| 

G|----------------|----------------|----------------|----------------| 
D|----------------|----------------|----------------|----------------| 
A|----------------|-3-3-3----------|----------------|-3-3-3----------| 
D|-0-0-0-0-0-0-0-0|----------------|-0-0-0-0-0-0-0-0|-----------5-5--| 

Chorus 1           (Sometimes I feel like) 
G|----------------|----------------|----------------|----------------| 
D|----------------|----------------|----------------|----------------| 
A|-0-0-0-0-0-0-0-0|-0-0-0-0-0-0-0-0|----------------|----------------| 
D|----------------|----------------|-4-4-4-4-4-4-4-4|-4-4-4-4-4-4-4-4| 4X 

G|----------------| 
D|----------------| 
A|-3-3-3----------| 
D|-----------5-5--| 

verse 2(One day I'm gonna write…) 
G|----------------|----------------|----------------|----------------| 
D|----------------|----------------|----------------|----------------| 
A|----------------|----------------|----------------|----------------| 
D|-0-0-0-0-0-0-0-0|-0-0-0-0-0-0-0-0|-0-0-0-0-0-0-0-0|-0-0-0-0-0-0-0-0| 

G|----------------|----------------|----------------|----------------| 
D|----------------|----------------|----------------|----------------| 
A|----------------|----------------|----------------|----------------| 
D|-0-0-0-0-0-0-0-0|-5-5-5-5-5-5-5-5|-5-5-5-5-5-5-5-5|-5-5-5-5-5-5-5-5| 

G|----------------|----------------|----------------|----------------| 
D|----------------|----------------|----------------|----------------| 
A|----------------|----------------|----------------|----------------| 
D|-5-5-5-5-5-5-5-5|-5-5-5-5-5-5-5-5|-5-5-5-5-5-5-5-5|-0-0-0-0-0-0-0-0| 

G|----------------|----------------|----------------|----------------| 
D|----------------|----------------|----------------|----------------| 
A|----------------|-3-3-3----------|----------------|-3-3-3----------| 
D|-0-0-0-0-0-0-0-0|----------------|-0-0-0-0-0-0-0-0|-----------5-5--| 

Chorus 2 
G|----------------|----------------|----------------|----------------| 
D|----------------|----------------|----------------|----------------| 
A|-0-0-0-0-0-0-0-0|-0-0-0-0-0-0-0-0|----------------|----------------| 
D|----------------|----------------|-4-4-4-4-4-4-4-4|-4-4-4-4-4-4-4-4| 2X 

G|----------------|----------------|----------------|----------------| 
D|----------------|----------------|----------------|----------------| 
A|-0-0-0-0-0-0-0-0|-0-0-2-3-4---4-2|----------------|----------------| 
D|----------------|-----------2----|-4-4-4-4-4-4-4-4|-4-4-4-4-4-4-4-4|  

G|----------------|----------------|----------------|----------------| 
D|----------------|----------------|----------------|----------------| 
A|-0-0-0-0-0-0-0-0|-0-0-0-0-0-0-0-0|----------------|----------------| 
D|----------------|----------------|-4-4-4-4-4-4-4-4|-4-4-4-4-4-4-4-4|  

G|----------------| 
D|----------------| 
A|-3-3-3----------| 
D|-----------5-5--| 

Then 
G|----------------|----------------|----------------|----------------| 
D|----------------|----------------|----------------|----------------| 
A|----------------|----------------|----------------|----------------| 
D|-5-5-5-5-5-5-5-5|-5-5-5-5-5-5-5-5|-5-5-5-5-5-5-5-5|-5-5-5-5-5-5-5-5| 

G|----------------|----------------|----------------|----------------| 
D|----------------|----------------|----------------|----------------| 
A|----------------|----------------|-0-0-0-0-0-0-0-0|-0-0-0-0-0-0-0-0| 
D|-4-4-4-4-4-4-4-4|-4-4-4-4-4-4-4-4|----------------|----------------|  

G|----------------|----------------|----------------|----------------| 
D|----------------|----------------|----------------|----------------| 
A|----------------|----------------|-0-0-0-0-0-0-0-0|-0-0-2-3-4---4-2| 
D|-4-4-4-4-4-4-4-4|-4-4-4-4-4-4-4-4|----------------|-----------2----|  

G|----------------|----------------|----------------|----------------| 
D|----------------|----------------|----------------|----------------| 
A|----------------|----------------|-0-0-0-0-0-0-0-0|-0-0-0-0-0-0-0-0| 
D|-4-4-4-4-4-4-4-4|-4-4-4-4-4-4-4-4|----------------|----------------|  

G|----------------|----------------|----------------|----------------| 
D|----------------|----------------|----------------|----------------| 
A|----------------|----------------|-0-0-0-0-0-0-0-0|-0-0-2-3-4---4-2| 
D|-4-4-4-4-4-4-4-4|-4-4-4-4-4-4-4-4|----------------|-----------2----|  

G|----------------|----------------|----------------|----------------| 
D|----------------|----------------|----------------|----------------| 
A|----------------|----------------|-0-0-0-0-0-0-0-0|-0-0-0-0-0-0-0-0| 
D|-4-4-4-4-4-4-4-4|-4-4-4-4-4-4-4-4|----------------|----------------|  

G|----------------|----------------|----------------|----------------| 
D|----------------|----------------|----------------|----------------| 
A|----------------|----------------|-3-3-3----------|-3-3-3----------| 
D|-4-4-4-4-4-4-4-4|-4-4-4-4-4-2-4-5|-----------5-5--|-----------5-5--| 

G|----------------| 
D|----------------| 
A|----------------| 
D|-2--------------| 

End 
	  

No existe una video leccione para esta canción

request
LosAcordes
Buscar
auto avanzar rasgueos aumentar disminuir cambiar color esconder acordes gráficos
losacordes exhibir acordes losacordes youTube video losacordes ocultar tabs losacordes ir hacia arriba losacordes