Dream Theater

Início > Dream Thea... > acordes

Perfect Strangers (cover Deep Purple) Acordes

Dream Theater

Dificultad:ExpertoExperto

tuner correct add songbook print version text version salvar en e-mail
acordesukuleletablaturabajobateríaarmónicaflautacavacopiano Guitar Pro
acordes

Perfect Strangers (cover Deep Purple)

	   
fill 1: 
|-------------------------------| 
|-------------------------------| 
|--(2)--------------------------| 
|--(2)--------------------------| 
|--(0)---------3----------------| 
|-------3---5-----5---3---5-----| 
 
|---------------------|-------------------------|------------------|------------------|| 
|---------------------|-------------------------|------------------|------------------|| 
|------5---7----------|---(7)-----------5----7--|---10---12--------|-(12)-------------|| 
|------5---7----------|---(7)-----------5----7--|---10---12--------|-(12)-------------|| 
|------3---5----------|---(5)-----------3----5--|---8----10--------|-(10)-------------|| 
|---------------------|-------------------------|------------------|------------------|| 
 
            Can you re-mem-ber,      re-mem-ber  my   name?__________ 
 
|---------------------|----------------------------------|------------------| 
|---------------------|----------------------------------|------------------| 
|------5---7----------|---(7)--------------------5----7--|---10---12--------| 
|------5---7----------|---(7)--------------------5----7--|---10---12--------| 
|------3---5----------|---(5)--------------------3----5--|---8----10--------| 
|---------------------|----------------------------------|------------------| 
 
          As I flow through your life               A thousand oceans I have 
 
|-----------------------------|-----------------|---------------------------------| 
|-----------------------------|-----------------|---------------------------------| 
|------(12)-------------------|---5---7---------|----(7)-----------------5----7---| 
|------(12)-------------------|---5---7---------|----(7)-----------------5----7---| 
|------(10)-------------------|---3---5---------|----(5)-----------------3----5---| 
|-----------------------------|-----------------|---------------------------------| 
 
   flown________  Oh,________     And   cold____________ 
|                                                          | 
|-------------------|------------------||------------------| 
|-------------------|------------------||------------------| 
|----10-------12----|--(12)------------||---0----2---------| 
|----10-------12----|--(12)------------||---0----2---------| 
|----8--------10----|--(10)------------||--------0---------| 
|-------------------|------------------||------------------| 
 
 cold         spi - rits  of  ice._____ 
  
 
* fill 1 
|---------------------------------------|----------------------------| 
|---------------------------------------|----------------------------| 
|---(2)---0----2----5----2----0----2----|---(2)---2---------0--------| 
|---(2)---0----2----5----2----0----2----|---(2)----------------------| 
|---(0)--------0----3----0---------0----|---(0)------------------0---| 
|---------------------------------------|----------------------------| 
 
 
 All___________   my life__ 
 
 
** this is the way that ritchie plays 
|----------------------------------------|----------------------------| 
|----------------------------------------|----------------------------| 
|----------0----2----5----2----0----2----|---(2)---2---------0--------| 
|-----2----0----2----5----2----0----2----|---(2)----------------------| 
|---------------0----3----0---------0----|---(0)------------------0---| 
|----------------------------------------|----------------------------| 
 
 I am  the ech-o  of your 
| 
|----------------------------------------|----------------------------| 
|----------------------------------------|----------------------------| 
|----------0----2----5----2----0----2----|---(2)---2---------0--------| 
|-----2----0----2----5----2----0----2----|---(2)----------------------| 
|---------------0----3----0---------0----|---(0)------------------0---| 
|----------------------------------------|----------------------------| 
 
  past.__________________________________________ 
 
|-----------||-------------------|--------------------| 
|-----------||-------------------|--------------------| 
|-----------||----5----7---------|---(7)-----5----7---| 
|----2------||----5----7---------|---(7)-----5----7---| 
|-----------||----3----5---------|---(5)-----3----5---| 
|-----------||-------------------|--------------------| 
 
|----------------------------|------------------------------------| 
|----------------------------|------------------------------------| 
|----10-------12-------------|------------------------------------| 
|----10-------12-------------|------------------------------------| 
|----8--------10-------------|------------------------------------| 
|----------------------------|------------------------------------| 
 
 
 I am returning      the  echo  of a point  in  time 
 
|---------------------|----------------------------------|------------------| 
|---------------------|----------------------------------|------------------| 
|------5---7----------|---(7)--------------------5----7--|---10---12--------| 
|------5---7----------|---(7)--------------------5----7--|---10---12--------| 
|------3---5----------|---(5)--------------------3----5--|---8----10--------| 
|---------------------|----------------------------------|------------------| 
 
          Distant faces shine___               A thou-sand war-riors I have 
 
|-----------------------------|-----------------|---------------------------------| 
|-----------------------------|-----------------|---------------------------------| 
|------(12)-------------------|---5---7---------|----(7)-----------------5----7---| 
|------(12)-------------------|---5---7---------|----(7)-----------------5----7---| 
|------(10)-------------------|---3---5---------|----(5)-----------------3----5---| 
|-----------------------------|-----------------|---------------------------------| 
 
     known________  Oh,________     And   laugh - ing_____ 
 
|-------------------|------------------||------------------| 
|-------------------|------------------||------------------| 
|----10-------12----|--(12)------------||---0----2---------| 
|----10-------12----|--(12)------------||---0----2---------| 
|----8--------10----|--(10)------------||--------0---------| 
|-------------------|------------------||------------------| 
 
           as   the spir- its  ap- pear.__________ 
 
|----------------------------------------|----------------------------| 
|----------------------------------------|----------------------------| 
|----(2)---0----2----5----2----0----2----|---(2)---2---------0--------| 
|----(2)---0----2----5----2----0----2----|---(2)----------------------| 
|----(0)--------0----3----0---------0----|---(0)------------------0---| 
|----------------------------------------|----------------------------| 
 
 All___________ your life__ 
|----------------------------------------|----------------------------| 
|----------------------------------------|----------------------------| 
|----------0----2----5----2----0----2----|---(2)---2---------0--------| 
|-----2----0----2----5----2----0----2----|---(2)----------------------| 
|---------------0----3----0---------0----|---(0)------------------0---| 
|----------------------------------------|----------------------------| 
 
 Shadows of  a-noth-er 
 
|----------------------------------------|----------------------------| 
|----------------------------------------|----------------------------| 
|----------0----2----5----2----0----2----|---(2)---2---------0--------| 
|-----2----0----2----5----2----0----2----|---(2)----------------------| 
|---------------0----3----0---------0----|---(0)------------------0---| 
|----------------------------------------|----------------------------| 
 
   day.___________________________________________ 
|--------------------------5----------------------------------------------------------||-------------------1----| 
|---------5-----4-----5---------5----3----1----3----1---------1-----------------------||------------------------| 
|--------------------------------------------------------2---------2----0----2----0---||---------2----2---------| 
|----2--------------------------------------------------------------------------------||----3-------------------| 
|-------------------------------------------------------------------------------------||------------------------| 
|-------------------------------------------------------------------------------------||------------------------| 
| 
     And  if you hear me talking on the wind,        you've got to understand       we must re- 
 
|----3----0--------------|------------------1----0-------------|---------3--------3---------3---| 
|--------------1---------|-------------3----3----3----3----1---|--------------------------------| 
|------------------------|--------2----2----2----2-------------|---0----------------------------| 
|------------------------|---0----0----0----0----0-------------|--------------------------------| 
|------------------------|-------------------------------------|--------------------------------| 
|------------------------|-------------------------------------|--------------------------------| 
 
          main                      per   -   fect             strang   -    ers.________ 
 
|-------------------1----5----7----5----7----5----7----5---|---------------------------------||----------------------| 
|--------------3----3--------------------------------------|---1----1--------------------1---||---3----3----3----3---| 
|---------2----2----2--------------------------------------|---3----3---------------0----0---||---4----4----4----4---| 
|----0----0----0----0--------------------------------------|---2----2----------2----2----2---||---5----5----5----5---| 
|----------------------------------------------------------|---3----3------------------------||----------------------| 
|----------------------------------------------------------|---------------------------------||----------------------| 
 
                          keyb. 
|-----------------------|------------------------|----------------------| 
|----3----3----3----3---|------------------------|----------------------| 
|----4----4----4----4---|------------------------|----------------------| 
|----5----5----5----5---|------------------------|----------------------| 
|-----------------------|------------------------|----------------------| 
|-----------------------|------------------------|----------------------| 
 
 this is my favorite part 
|------------------------------------------------|-----------------------------------------------------------| 
|------------------------------------------------|-----------------------------------------------------------| 
|--------2---2---2-------3---3---3---0---0---0---|-------2---2---2---------------2---2---2---0---0---0---0---| 
|------------------------------------------------|-------------------3---3---3-------------------------------| 
|----0---------------0---------------------------|---0-------------------------------------------------------| 
|------------------------------------------------|-----------------------------------------------------------| 
 
|------------------------------------------------|-----------------------------------------------------------| 
|------------------------------------------------|-----------------------------------------------------------| 
|--------2---2---2-------3---3---3---0---0---0---|-------2---2---2---------------2---2---2---0---0---0---0---| 
|------------------------------------------------|-------------------3---3---3-------------------------------| 
|----0---------------0---------------------------|---0-------------------------------------------------------| 
|------------------------------------------------|-----------------------------------------------------------| 
 
|------------------------------------------------|-----------------------------------------------------------| 
|------------------------------------------------|-----------------------------------------------------------| 
|--------2---2---2-------3---3---3---0---0---0---|-------2---2---2---------------2---2---2---0---0---0---0---| 
|------------------------------------------------|-------------------3---3---3-------------------------------| 
|----0---------------0---------------------------|---0-------------------------------------------------------| 
|------------------------------------------------|-----------------------------------------------------------| 
 
 I    know   I 
|------------------------------------------------|---------------------------------------------------| 
|------------------------------------------------|---------------------------------------------------| 
|--------2---2---2-------3---3---3---0---0---0---|-------2---2---2---------------2---2---2---0---0---| 
|------------------------------------------------|-------------------3---3---3-----------------------| 
|----0---------------0---------------------------|---0-----------------------------------------------| 
|------------------------------------------------|---------------------------------------------------| 
 
   must   re  -  main  in - side   this  si - lent  well   of  |   sor  -  row.___ 
|                                                             | 
|-------------------------------------------------------------|-------------------------------------| 
|-------------------------------------------------------------|-------------------------------------| 
|----0--------------------------------------------------------|----5----7------------(7)---5----7---| 
|--------3---3---3---2---2---2---0---0---0--------------------|----5----7------------(7)---5----7---| 
|--------------------------------------------3---3---3----1---|----3----5------------(5)---3----5---| 
|-------------------------------------------------------------|-------------------------------------| 
 
|--------------------------------------------| 
|--------------------------------------------| 
|-----10---12------------(12)----------------| 
|-----10---12------------(12)----------------| 
|-----8----10------------(10)----------------| 
|--------------------------------------------| 
 
              A strand of sil-ver,      hang-ing through  the  sky,____ 
 
|---------------------|----------------------------------|------------------| 
|---------------------|----------------------------------|------------------| 
|------5---7----------|---(7)--------------------5----7--|---10---12--------| 
|------5---7----------|---(7)--------------------5----7--|---10---12--------| 
|------3---5----------|---(5)--------------------3----5--|---8----10--------| 
|---------------------|----------------------------------|------------------| 
 
 touching more than you  see              The voice of ages  in your 
 
|-----------------------------|-----------------|---------------------------------| 
|-----------------------------|-----------------|---------------------------------| 
|------(12)-------------------|---5---7---------|----(7)-----------------5----7---| 
|------(12)-------------------|---5---7---------|----(7)-----------------5----7---| 
|------(10)-------------------|---3---5---------|----(5)-----------------3----5---| 
|-----------------------------|-----------------|---------------------------------| 
 
     mind_______    Oh,________      Is   aching__________ | 
|                                                          | 
|-------------------|------------------||------------------| 
|-------------------|------------------||------------------| 
|----10-------12----|--(12)------------||---0----2---------| 
|----10-------12----|--(12)------------||---0----2---------| 
|----8--------10----|--(10)------------||--------0---------| 
|-------------------|------------------||------------------| 
 
 
with the dead  of   the night._____ 
 
|----------------------------------------|----------------------------| 
|----------------------------------------|----------------------------| 
|----(2)---0----2----5----2----0----2----|---(2)---2---------0--------| 
|----(2)---0----2----5----2----0----2----|---(2)----------------------| 
|----(0)--------0----3----0---------0----|---(0)------------------0---| 
|----------------------------------------|----------------------------| 
 
       Ohhh hoo oww_________                 Pre      -    cious life_ 
|                                                                     | 
|----------------------------------------|----------------------------| 
|----------------------------------------|----------------------------| 
|----------0----2----5----2----0----2----|---(2)---2---------0--------| 
|-----2----0----2----5----2----0----2----|---(2)----------------------| 
|---------------0----3----0---------0----|---(0)------------------0---| 
|----------------------------------------|----------------------------| 
 
Your tears are lost in falling 
 
|----------------------------------------|----------------------------| 
|----------------------------------------|----------------------------| 
|----------0----2----5----2----0----2----|---(2)---2---------0--------| 
|-----2----0----2----5----2----0----2----|---(2)----------------------| 
|---------------0----3----0---------0----|---(0)------------------0---| 
|----------------------------------------|----------------------------| 
 
|--------------------------5----------------------------------------------------------||-------------------1----| 
|---------5-----4-----5---------5----3----1----3----1---------1-----------------------||------------------------| 
|--------------------------------------------------------2---------2----0----2----0---||---------2----2---------| 
|----2--------------------------------------------------------------------------------||----3-------------------| 
|-------------------------------------------------------------------------------------||------------------------| 
|-------------------------------------------------------------------------------------||------------------------| 
 
 
    And  if you hear me talking on the wind,        you've got to understand       we must re- 
| 
|----3----0--------------|------------------1----0-------------|---------3--------3---------3---| 
|--------------1---------|-------------3----3----3----3----1---|--------------------------------| 
|------------------------|--------2----2----2----2-------------|---0----------------------------| 
|------------------------|---0----0----0----0----0-------------|--------------------------------| 
|------------------------|-------------------------------------|--------------------------------| 
|------------------------|-------------------------------------|--------------------------------| 
 
           main                      per   -   fect             strang   -    ers.________ 
 
|-------------------1----5----7----5----7----5----7----5---|---------------------------------||----------------------| 
|--------------3----3--------------------------------------|---1----1--------------------1---||---3----3----3----3---| 
|---------2----2----2--------------------------------------|---3----3---------------0----0---||---4----4----4----4---| 
|----0----0----0----0--------------------------------------|---2----2----------2----2----2---||---5----5----5----5---| 
|----------------------------------------------------------|---3----3------------------------||----------------------| 
|----------------------------------------------------------|---------------------------------||----------------------| 
 
                         keyboard 
|-----------------------|------------------------|----------------------| 
|----3----3----3----3---|------------------------|----------------------| 
|----4----4----4----4---|------------------------|----------------------| 
|----5----5----5----5---|------------------------|----------------------| 
|-----------------------|------------------------|----------------------| 
|-----------------------|------------------------|----------------------| 
 
|------------------------------------------------|-----------------------------------------------------------| 
|------------------------------------------------|-----------------------------------------------------------| 
|------------------------------------------------|-----------------------------------------------------------| 
|--------2---2---2-------3---3---3---0---0---0---|-------2---2---2---------------2---2---2---0---0---0---0---| 
|------------------------------------------------|-------------------3---3---3-------------------------------| 
|----0---------------0---------------------------|----0------------------------------------------------------| 
 
|------------------------------------------------|-----------------------------------------------------------| 
|------------------------------------------------|-----------------------------------------------------------| 
|------------------------------------------------|-----------------------------------------------------------| 
|--------2---2---2-------3---3---3---0---0---0---|-------2---2---2---------------2---2---2---0---0---0---0---| 
|------------------------------------------------|-------------------3---3---3-------------------------------| 
|----0---------------0---------------------------|----0------------------------------------------------------| 
 
|------------------------------------------------|-----------------------------------------------------------| 
|------------------------------------------------|-----------------------------------------------------------| 
|------------------------------------------------|-----------------------------------------------------------| 
|--------2---2---2-------3---3---3---0---0---0---|-------2---2---2---------------2---2---2---0---0---0---0---| 
|------------------------------------------------|-------------------3---3---3-------------------------------| 
|----0---------------0---------------------------|----0------------------------------------------------------| 
 
|------------------------------------------------|---------------------------------------------------| 
|------------------------------------------------|---------------------------------------------------| 
|------------------------------------------------|---------------------------------------------------| 
|--------2---2---2-------3---3---3---0---0---0---|-------2---2---2---------------2---2---2---0---0---| 
|------------------------------------------------|-------------------3---3---3-----------------------| 
|----0---------------0---------------------------|----0----------------------------------------------| 
 
|-------------------------------------------------------------| 
|-------------------------------------------------------------| 
|-------------------------------------------------------------| 
|----0--------------------------------------------------------| 
|--------3---3---3---2---2---2---0---0---0--------------------| 
|--------------------------------------------3---3---3----1---| 
 
|------------------------------------------------|-----------------------------------------------------------| 
|------------------------------------------------|-----------------------------------------------------------| 
|------------------------------------------------|-----------------------------------------------------------| 
|--------2---2---2-------3---3---3---0---0---0---|-------2---2---2---------------2---2---2---0---0---0---0---| 
|------------------------------------------------|-------------------3---3---3-------------------------------| 
|----0---------------0---------------------------|----0------------------------------------------------------| 
 
|------------------------------------------------|-----------------------------------------------------------| 
|------------------------------------------------|-----------------------------------------------------------| 
|------------------------------------------------|-----------------------------------------------------------| 
|--------2---2---2-------3---3---3---0---0---0---|-------2---2---2---------------2---2---2---0---0---0---0---| 
|------------------------------------------------|-------------------3---3---3-------------------------------| 
|----0---------------0---------------------------|----0------------------------------------------------------| 
 
|------------------------------------------------|-----------------------------------------------------------|| 
|:-----------------------------------------------|----------------------------------------------------------:|| 
|--------1---1---1-------2---2---2---------------|-------1---1---1---------------1---1---1-------------------|| 
|--------2---2---2-------3---3---3---3---3---3---|-------2---2---2---2---2---2---2---2---2---3---3---3---3---|| 
|:-----------------------------------5---5---5---|-------------------3---3---3---------------5---5---5---5--:|| 
|----0---------------0---------------------------|----0------------------------------------------------------||  
 
_______________________________________________________ 
Contribuição: Taino Vieira([email protected]) 

	  

No existe una video leccione para esta canción

request
LosAcordes
Buscar
auto avanzar rasgueos aumentar disminuir cambiar color esconder acordes simplificar gráficos columnas
losacordes exhibir acordes losacordes youTube video losacordes ocultar tabs losacordes ir hacia arriba losacordes