Devotos

Início > Devotos > acordes

Eu tenho pressa Acordes

Devotos

Dificultad:PrincipiantePrincipiante

tuner correct add songbook print version text version salvar en e-mail
acordesukuleletablaturabajobateríaarmónicaflautacavacopiano Guitar Pro
acordes

Eu tenho pressa

	            C#                 B
Eu tenho pressa de vencer (eu tenho pressa)
                      C#                 B
Eu tenho pressa de vingar (eu tenho pressa)
                   C#                 B
Vencer para me suceder (eu tenho pressa)
                   C#                 B
Vingar pra me realizar (eu tenho pressa)

                       A    B
Vivendo assim eu vou morrer
                       C#
Vivendo assim eu vou matar
                      A   B
Eu tenho pressa de vencer
                      C#
Eu tenho pressa de vingar

(C#)
Pa pa para pa pa pararuraru
Pa pa pararu pá

   A       B       C#            A      B         C#
e|----------------------------------------------------------|
B|----------------------------------------------------------|
G|-------------------------------7-9------------------------|
D|-7-9----7-9------------------------9--7~-9p7-----7h9-7----|
A|-----9~-----9~--7-9----7-9-------------------7-9-------9~-|
E|--------------------9~-----9~-----------------------------|

A B   C#
Ê ê  êaaaaa

A B   C#
Ê ê  êaaaaa!

(C#)
Pa pa para pa pa pararuraru
Pa pa pararu pá


e|-----------------------------------------------------------|
B|--------------------------10--7-7-7-10-7-7-7-10-7-7-7-6/7^-|
G|-----------------------------------------------------------|
D|-9^-7-9^-7-9^-7-9^-7--9-7----------------------------------|
A|-----------------------------------------------------------|
E|-----------------------------------------------------------|

e|-12-11-9----------------
B|---------8/9^--8-9-8-9^-
G|
D|
A|
E|

(A B C#)

A B   C#
Ê ê  êaaaaa!

(C#)
Pa pa para pa pa pararuraru
Pa pa pararu pá


_______________________________________________________
Contribuição: Gabriel Osias Aguiar de Souza([email protected])
	  

No existe una video leccione para esta canción

request
Aumentar uno tonoAumentar uno tono
Aumentar uno semi-tonoAumentar uno semi-tono
Disminuir uno semi-tonoDisminuir uno semi-tono
Disminuir uno tonoDisminuir uno semi-tono
LosAcordes
Buscar
auto avanzar rasgueos aumentar disminuir cambiar color esconder acordes simplificar gráficos columnas
losacordes exhibir acordes losacordes youTube video losacordes ocultar tabs losacordes ir hacia arriba losacordes