Incubus

Início > Incubus > acordes

Drive (solo) Tablatura

Incubus

Dificultad:PrincipiantePrincipiante

conradolcr

tuner correct add songbook print version text version salvar en e-mail
acordesukuleletablaturabajobateríaarmónicaflautacavacopiano Guitar Pro
acordes

Drive (solo)

	  Intro (Em  D  C7M  Am7) 4X  
  
  
(Em  D  C7M  Am7)  
Sometimes,  
I feel the fear of  
uncertainty stinging clear.  
And I can't help but ask myself  
how much I'll let the fear  
take the wheel and steer.  
  
C7M                A7  
 It's driven me before,  
                       C7M  
and it seems to have a vague,  
A7  
haunting mass appeal.  
C7M         A7  
 But lately I  
                         C7M  
am beginning to find that I  
              A7  
should be the one behind the wheel.  
  
  
(Em  D  C7M  Am7)  
Whatever tomorrow brings, I'll be there  
with open arms and open eyes.  
Whatever tomorrow brings, I'll be there  
So if I  
decide to waiver my  
chance to be one of the hive  
will I choose water over wine  
and hold my own and drive?  
  
  
C7M               A7  
It's driven me before  
                       C7M  
and it seems to be the way  
         A7  
that everyone else gets around.  
C7M        A7  
But lately I'm  
                        C7M            A7  
beginning to find that when I drive myself my light is found.  
  
  
(Em  D  C7M  Am7)  
So whatever tomorrow brings,  
I'll be there with open arms and open eyes.  
Yeh.  
So whatever tomorrow brings,I'll be there  
 
 
* SOLO (a segunda guitarra fica repetindo o verso) * 
 
e||-------------------|--7----5\---3/-------|--5-------------------| 
B||--5--5--5--5/------|---------------------|-------3----5--3-5-3--| 
G||-------------------|---------------------|----------------------| 
D||-------------------|---------------------|----------------------| 
A||-------------------|---------------------|----------------------| 
E||-------------------|---------------------|----------------------| 
 
 
 
e||------------|----------------3--5/--7-7|--5/--10---7--5--7--| 
B||--5--3-5--- |--5--3-5~-----------------|--------------------| 
G||------------|--------------------------|--------------------| 
D||------------|--------------------------|--------------------| 
A||------------|--------------------------|--------------------| 
E||------------|--------------------------|--------------------| 
 
 
e||------------|----------------5--5--3-3-|-----------------------|| 
B||--5/-3--3---|--5--3-5-3----------------|--5-3/5--3-------------|| 
G||------------|--------------------------|-----------4-2-2-4-4~--|| 
D||------------|--------------------------|-----------------------|| 
A||------------|--------------------------|-----------------------|| 
E||------------|--------------------------|-----------------------|| 
  
  
C7M         A7              C7M  
Would you choose water over wine....  
A7  
hold the wheel and drive? 
 
 
(Em  D  C7M  Am7)  
So whatever tomorrow brings,  
I'll be there with open arms and open eyes.  
Yeh.  
So whatever tomorrow brings,I'll be there  
  
 
FINAL  (Em  D  C7M  Am7)4x  
       (C7M  A7) 
 
 
 
Contribuição: Conrado L. C. Rossi  
([email protected]) 

	  

No existe una video leccione para esta canción

request
Aumentar uno tonoAumentar uno tono
Aumentar uno semi-tonoAumentar uno semi-tono
Disminuir uno semi-tonoDisminuir uno semi-tono
Disminuir uno tonoDisminuir uno semi-tono
LosAcordes
Buscar
auto avanzar rasgueos aumentar disminuir cambiar color esconder acordes gráficos
losacordes exhibir acordes losacordes youTube video losacordes ocultar tabs losacordes ir hacia arriba losacordes