Weezer

Início > Weezer > acordes

Say it ain`t so Tablatura

Weezer

Dificultad:ExpertoExperto

tuner correct add songbook print version text version salvar en e-mail
acordesukuleletablaturabajobateriaarmónicaflautacavacopiano Guitar Pro
acordes

Say it ain`t so

	   
Say It Ain't So - Weezer 
 
INTRO: 
 
Guitarra Solo (x2): 
Eb--------4------------------------|-----------5--------(0)----------------| 
Bb--4h5---5--x---0-------------0---|-----------5--x--x---0-----------------| 
Gb--4-----4--x---5-----------5-----|--------6--6--x--x---1--------------9-| 
Db--4h6------x---6---------6-------|--6/7---7-----x--x---2--------------9-| 
Ab--4------------6-------6---------|--6/7-------------------------9h11-----| 
Eb---------------4-----4-----------|--------------------------0------------| 
 
Eb--------4------------------------|------------5-----0---0----------------| 
Bb--4h5---5--x-x----------------0--|------------5--x--x---0----------------| 
Gb--4-----4--x-x--5-----------5----|---------6--6--x------1----------------| 
Db--4h6------x-x--6---------6------|---6/7---7-----x------2----------------| 
Ab--4-------------6-------6--------|---6/7---------------------------------| 
Eb----------------4-----4----------|---------------------------------------| 
 
Guitarra Base (x2):		 (junto com a segunda vez da g. base) 
Eb----4--------4--------4--------4---|-----5-------4-------4-------4------| 
Bb----5--------4--------4--------4---|-----5-------5-------5-------5------| 
Gb----6--------5--------5--------5---|-----6-------4-------4-------4------| 
Db-----------------------------------|------------------------------------| 
Ab-----------------------------------|------------------------------------| 
Eb-----------------------------------|------------------------------------| 
oh yeah.................  
all right............... 
 
VERSO (x3): 
Eb----4--------4--------4--------4---|-----5-------4-------4-------4------| 
Bb----5--------4--------4--------4---|-----5-------5-------5-------5------| 
Gb----6--------5--------5--------5---|-----6-------4-------4-------4------|  
Db-----------------------------------|------------------------------------| 
Ab-----------------------------------|------------------------------------| 
Eb-----------------------------------|------------------------------------| 
Somebody's Heine' is crowdin' my icebox  
Somebody's cold one is givin' me chills  
Guess I'll just close my eyes 
 
INTERLUDE: 
 
Guitarra Solo: 
Eb--------4------------------------|-----------5--------(0)----------------| 
Bb--4h5---5--x---0-------------0---|-----------5--x--x---0-----------------| 
Gb--4-----4--x---5-----------5-----|--------6--6--x--x---1--------------9--| 
Db--4h6------x---6---------6-------|--6/7---7-----x--x---2--------------9--| 
Ab--4------------6-------6---------|--6/7-------------------------9h11-----| 
Eb---------------4-----4-----------|--------------------------0------------| 
 
Eb-------------------------------------------------------------------------| 
Bb-----------------9-----------10h12---10-----10------------9--------------| 
Gb------9---9------9-----------11h13---11------9h11h9-------9----9---------| 
Db------9---9h11--------11----------------------------11---------9---------| 
Ab--11---------------------------------------------------------------------| 
Eb-------------------------------------------------------------------------| 
 
Guitarra Base: 
Eb----4--------4--------4--------4---|-----5-------4-------4-------4------| 
Bb----5--------4--------4--------4---|-----5-------5-------5-------5------| 
Gb----6--------5--------5--------5---|-----6-------4-------4-------4------| 
Db-----------------------------------|------------------------------------| 
Ab-----------------------------------|------------------------------------| 
Eb-----------------------------------|------------------------------------| 
oh yeah.................  
all right............... 
fells good.............. 
inside.................. 
 
VERSO (x3): 
Eb----4--------4--------4--------4---|-----5-------4-------4-------4------| 
Bb----5--------4--------4--------4---|-----5-------5-------5-------5------| 
Gb----6--------5--------5--------5---|-----6-------4-------4-------4------|  
Db-----------------------------------|------------------------------------| 
Ab-----------------------------------|------------------------------------| 
Eb-----------------------------------|------------------------------------| 
Flip on the tele'  
Wrestle with Jimmy  
Something is bubbling  
Behind my back  
The bottle is ready to blow  
 
REFRÃO (x2): 
Eb--------------|--------------------|--------------|--------------------| 
Bb--------------|--------------------|--------------|--------------------| 
Gb--6--6--------|--------------------|--6--6--------|--------------------| 
Db--6--6--6--6--|--7--7---2---2-2-2--|--6--6--6--6--|--7--7---2---2-2-2--| 
Ab--4--4--6--6--|--7--7---2---2-2-2--|--4--4--6--6--|--7--7---2---2-2-2--| 
Eb--------4--4--|--5--5---0---0-0-0--|--4--4--4--4--|--5--5---0---0-0-0--| 
Say it ain't so  
Your drug is a heartbreaker  
Say it ain't so  
My love is a lifetaker                                    
 
INTERLUDE II: 
 
Guitarra Solo: 
Eb--------4-----------------------|-----------5--------------------7--11--7--| 
Bb--4h5---5--x---0-------------0--|-----------5--x--x---9--------7-----------| 
Gb--4-----4--x---5-----------5----|--------6--6--x--x---9------8-------------| 
Db--4h6------x---6---------6------|--6/7---7-----x--x---9----9---------------| 
Ab--4------------6-------6--------|--6/7----------------7--------------------| 
Eb---------------4-----4----------|------------------------------------------| 
 
Eb--9----7--------------------------------------------| 
Bb----9----7h9-----7----------------------------------| 
Gb---------------9---7--9/(9)-8/9------6h8--4--6-----| 
Db---------------------------------11-------------6---| 
Ab----------------------------------------------------| 
Eb----------------------------------------------------| 
 
Guitarra Base (x2): 
Eb----4--------4--------4--------4---|------5--------4--------4--------4--------| 
Bb----5--------4--------4--------4---|------5--------5--------5--------5--------| 
Gb----6--------5--------5--------5---|------6--------4--------4--------4--------| 
Db-----------------------------------|------------------------------------------| 
Ab-----------------------------------|------------------------------------------| 
Eb-----------------------------------|------------------------------------------| 
 
VERSO (x4): 
Eb----4--------4--------4--------4---|-----5-------4-------4-------4------| 
Bb----5--------4--------4--------4---|-----5-------5-------5-------5------| 
Gb----6--------5--------5--------5---|-----6-------4-------4-------4------|  
Db-----------------------------------|------------------------------------| 
Ab-----------------------------------|------------------------------------| 
Eb-----------------------------------|------------------------------------| 
I can't confront you  
I never could do  
That which might hurt you  
So try and be cool  
When I say  
*This way is a waterslide away from me that takes you further every day  
So be cool  
 
*Guitarra Base: 
Eb-------------------|-------------------| 
Bb-------------------|-------------------| 
Gb---6---------------|---6---------------| 
Db---6---6---7---2---|---6---6---7---2---| 
Ab---4---6---7---2---|---4---6---7---2---| 
Eb-------4---5---0---|-------4---5---0---| 
 
REFRÃO II (x2):   		    //= full bend 
Eb-----------------------|-------------------|-----------------------|-------------------| 
Bb--------5---------5----|-------------------|--------5---------5----|-------------------| 
Gb--6--6--7//-----7//|-------------------|--6--6--7//-----7//|-------------------| 
Db--6--6-------6--6------|-7--7---2---2-2-2--|--6--6-------6--6------|-7--7---2---2-2-2--| 
Ab--4--4-------6--6------|-7--7---2---2-2-2--|--4--4-------6--6------|-7--7---2---2-2-2--| 
Eb-------------4--4------|-5--5---0---0-0-0--|--4--4-------4--4------|-5--5---0---0-0-0--| 
Say it ain't so  
Your drug is a heartbreaker  
Say it ain't so  
My love is a lifetaker 
 
PONTE (x4): 
Eb----------------------|----------------------| 
Bb----------------------|----------------------| 
Gb----------------------|----------------------|	 
Db--9--9---9--9--9---9--|--2--2---2--5--5---5--| 
Ab--9--9---9--9--9---9--|--2--2---2--5--5---5--| 
Eb--7--7---7--6--6---6--|--0--0---0--3--3---3--| 
Dear Daddy,  
I write you in spite of years of silence.  
You've cleaned up, found Jesus, 
things are good or so I hear.  
This bottle of Steven's  
awakens ancient feelings.  
Like father, stepfather, the son is drowning in the flood.  
 
SOLO: 
 
Guitarra Base (x4): 
Eb----------------------------------------| 
Bb----------------------------------------| 
Gb---6-6-6-6--5-5-5-5--6-6-6-6--1-1-1-1---| 
Db---6-6-6-6--6-6-6-6--7-7-7-7--2-2-2-2---| 
Ab---4-4-4-4--6-6-6-6--7-7-7-7--2-2-2-2---| 
Eb---4-4-4-4--4-4-4-4--5-5-5-5--0-0-0-0---| 
 
Guitarra Solo: 
Eb-------------------------------------------------------------------------| 
Bb---19/(19)--17--16vvvvvvv------16---------------------------------------| 
Gb-----------------------------18-----18-----18/(18)--16------------------| 
Db--------------------------------------------------------------18vvvvvvv--| 
Ab-------------------------------------------------------------------------| 
Eb-------------------------------------------------------------------------| 
 
Eb-------------------------------------------------------------------------| 
Bb--19/(19)--17--16vvvvvvv------16----------------------------------------| 
Gb---------------------------18------18-----18/(18)-----16--18/vvv--18/---| 
Db-------------------------------------------------------------------------| 
Ab-------------------------------------------------------------------------| 
Eb-------------------------------------------------------------------------| 
 
Eb-------------16--14h16p14------------------------| 
Bb---------17---------------17--16vvvvvvvvv16vvvvvv| 
Gb--16s18------------------------------------------| 
Db-------------------------------------------------| 
Ab-------------------------------------------------| 
Eb-------------------------------------------------| 
                 					      1/2 
Eb----------------------16--------------|---------------------16/(16)------16-| 
Bb------------------17------19p17--16vvv|vvvvvvvvvvvvvvvvvv-------------19-----| 
Gb-----------16s18----------------------|--------------------------------------| 
Db--------------------------------------|--------------------------------------| 
Ab--------------------------------------|--------------------------------------| 
Eb--------------------------------------|--------------------------------------| 
 
REFRÃO II (x2):   		    //= full bend 
Eb-----------------------|-------------------|-----------------------|-------------------| 
Bb--------5---------5----|-------------------|--------5---------5----|-------------------| 
Gb--6--6--7//-----7//|-------------------|--6--6--7//-----7//|-------------------| 
Db--6--6-------6--6------|-7--7---2---2-2-2--|--6--6-------6--6------|-7--7---2---2-2-2--| 
Ab--4--4-------6--6------|-7--7---2---2-2-2--|--4--4-------6--6------|-7--7---2---2-2-2--| 
Eb-------------4--4------|-5--5---0---0-0-0--|--4--4-------4--4------|-5--5---0---0-0-0--| 
Say it ain't so  
Your drug is a heartbreaker  
Say it ain't so  
My love is a lifetaker 
 
FINAL: 
Eb--------4------------------------|-----------5---------------------------| 
Bb--4h5---5--x---0-------------0---|-----------5--x--x---9-----------------| 
Gb--4-----4--x---5-----------5-----|--------6--6--x--x---9--------------9-| 
Db--4h6------x---6---------6-------|--6/7---7-----x--x---9--------------9-| 
Ab--4------------6-------6---------|--6/7----------------7---------9h11----| 
Eb---------------4-----4-----------|--------------------------0------------| 
 
Eb--------4------------------------|------------5-----0---0----------------| 
Bb--4h5---5--x-x----------------0--|------------5--x--x---0----------------| 
Gb--4-----4--x-x--5-----------5----|---------6--6--x------1----------------| 
Db--4h6------x-x--6---------6------|---6/7---7-----x------2----------------| 
Ab--4-------------6-------6--------|---6/7---------------------------------| 
Eb----------------4-----4----------|---------------------------------------| 
 

	  

No existe una video leccione para esta canción

request
LosAcordes
Buscar
auto avanzar rasgueos aumentar disminuir cambiar color esconder acordes gráficos
losacordes exhibir acordes losacordes youTube video losacordes ocultar tabs losacordes ir hacia arriba losacordes