Story of The Year

Início > Story of T... > acordes

In The Shadows Tablatura

Story of The Year

Dificultad:FácilFácil

por PaZiN

tuner correct add songbook print version text version salvar en e-mail
acordesukuleletablaturabajobateríaarmónicaflautacavacopiano Guitar Pro
acordes

In The Shadows

	  INTRO: let each chord ring out 
    
   C    E minor 
E--3----7-- 
B--3----8-- 
G--5----9-- 
D--5----9-- 
A--3----7-- 
D---------- 
 
E--333--------333------333--------333-- 
B--333--------333------333--------333-- 
G--555--------555------555--------555-- 
D--555--------555------555--------555-- 
A--333--0000--333--00--333--0000--333-- 
d--333--0000--333--00--333--0000--333-- 
 
 
VERSE: "WE BOTH TAKE THE.. HARDEST PUNCHES...!" 
 
E---------------------------------    E--3333333-----333555- 
B---------------------------------    B--3333333-----333555- 
G-------------------55------------X8  G--5555555-X3--555777- 
D-------------------55------------    D--5555555-----555777- 
A--2-2--2-0----2-2--33--5-5--0-0--    A--3333333-----333555- 
D--2-2--2-0----2-2------5-5--0-0--    D--------------------- 
 
 
Chorus:  
 
E----------------3333333333----------------3333333333--5-5-5---------------- 
B----------------3333333333----------------3333333333--5-5-5---------------- 
G----------------5555555555----------------5555555555--7-7-7---------------- 
D----------------5555555555----------------5555555555--7-7-7---------------- 
A--22222--00000--3333333333--22222--00000--3333333333--5-5-5---22222--00000- 
D--22222--00000--------------22222--00000----------------------22222--00000- 
 
--33333-33333------------------3-3-3-3--------5-5-5-5-- 
--33333-33333------------------3-3-3-3--------5-5-5-5-- 
--55555-55555------------------5-5-5-5--------7-7-7-7-- 
--55555-55555------------------5-5-5-5--------7-7-7-7-- 
--33333-33333--22222--00000----3-3-3-3--0000--5-5-5-5-- 
---------------22222--00000-------------0000----------- 
 
IT THEN GOES BACK TO THE VERSE BUT THE GUITARS DONT COME IN UNTIL AFTER 4 MEASURES...:  
 
 
E----------------------------33------------   E--3333333-----333555-- 
B----------------------------33------------   B--3333333-----333555-- 
G----------------------------55------------   G--5555555-X3--555777-- 
D----------------------------55------------X4 D--5555555-----555777-- 
A--0-0-0----2-2--2-0----2-2--33--5-5--0-0--   A--3333333-----333555-- 
D--0-0-0----2-2--2-0----2-2------5-5--0-0--   D----------------------  
 
 
Chorus: 
 
 
BRIGDE: "AFTER ALL... WE'RE STILL THE SAME..." 
 
   E minor  C major 7 
E--7--------3---- 
B--8--------5---- 
G--9--------4---- go back and forth between these chords in the bridge 
D--9--------5---- 
A--7--------3---- 
D----------------  
 
 
E-------------------33------------ 
B-------------------33------------ 
G-------------------55------------ 
D-------------------55------------X2 
A--2-2--2-0----2-2--33--5-5--0-0-- 
D--2-2--2-0----2-2------5-5--0-0-- 
 
 "AHHHHH!!!!!"  "WITH A CLOSED FIST!!! WITH A CLOSED FIST!!!"  
 
E-------------------33------------      E--3333333--2222222-- 
B-------------------33------------      B--3333333--2222222-- 
G-------------------55------------X6    G--5555555--5555555--X2 
D-------------------55------------      D--5555555--5555555-- 
A--2-2--2-0----2-2--33--5-5--0-0--      A--3333333--2222222-- 
D--2-2--2-0----2-2------5-5--0-0--      D--------------------  
 
E------------333333333333-- 
B------------333333333333-- 
G------------555555555555--  BACK TO Chorus AGAIN 
D------------555555555555-- 
A--2-2--0-0--333333333333-- 
D--2-2--0-0----------------  
 
E---------------------------33-----------------------------33--------------- 
B---------------------------33-----------------------------33--------------- 
G---------------------------55-----------------------------55--------------- 
D---------------------------55-----------------------------55--------------- 
A--0-0-0----2-2--2-0---2-2--33--5-5--0-0--2-2--2-0----2-2--33--5-5--0-0----- 
D--0-0-0----2-2--2-0---2-2------5-5--0-0--2-2--2-0----2-2------5-5--0-0--2-2 
 
 

	  

No existe una video leccione para esta canción

request
Aumentar uno tonoAumentar uno tono
Aumentar uno semi-tonoAumentar uno semi-tono
Disminuir uno semi-tonoDisminuir uno semi-tono
Disminuir uno tonoDisminuir uno semi-tono
LosAcordes
Buscar
auto avanzar rasgueos aumentar disminuir cambiar color esconder acordes gráficos
losacordes exhibir acordes losacordes youTube video losacordes ocultar tabs losacordes ir hacia arriba losacordes