Story of The Year

Início > Story of T... > acordes

anthem of our daying day Tablatura

Story of The Year

Dificultad:PrincipiantePrincipiante

por suhfalaserio

tuner correct add songbook print version text version salvar en e-mail
acordesukuleletablaturabajobateríaarmónicaflautacavacopiano Guitar Pro
acordes

anthem of our daying day

	  -|---------------------------------------------------------------------------- 
-|---------------------------------------------------------------------------- 
-|---------------------------------------------------------------------------- 
-|---7-77-7-77---11-1111-11-1111----9-99-9-99--------------------------------- 
-|---4-44-4-44----9--9-9--9--9-9----7-77-7-77--------------------------------- 
-|---------------------------------------------------------------------------- 
   INTRo(acustic)                                                              
 
-|---------------------------------------------------------------------------- 
-|---------------------------------------------------------------------------- 
-|---------------------------------------------------------------------------- 
-|---------------------------------------------------------------------------- 
-|--------------------------------2-2222-2-2222-2-2222-2-2222-2-2222-2-2222--- 
-|--------------------------------0-0000-0-0000-0-0000-0-0000-0-0000-0-0000--- 
  VERSE same as intro,then         PM...   ....   ....   ....   ....   ....    
 
-|---------------------------------------------------------------------------- 
-|---------------------------------------------------------------------------- 
-|---------------------------------------------------------------------------- 
-|----------------------------------------------------------7-7-7-7-7-7-7-7-7- 
-|----7-7-7-7-7-7-7-7---2-2-2-2-2-2-2-2---4-4-4-4-4-4-4-4---4-4-4-4-4-4-4-4-5- 
-|----5-5-5-5-5-5-5-5---0-0-0-0-0-0-0-0---2-2-2-2-2-2-2-2--------------------- 
  Chorus                                                                       
 
-|---------------------------------------------------------------------------- 
-|---------------------------------------------------------------------------- 
-|---------------------------------------------------------------------------- 
-|---------------------------------------------------------------------------- 
-|--------------------------44--44--44--44--44--44--44--44--44---------------- 
-|--------------------------22--22--22--22--22--22--22--22--22---------------- 
 Afte Chorus/VERSE 2 Gt.1                                                      
 
-|---------------------------------------------------------------------------- 
-|----7h9-7-9-7-----7h9-7-9-7------------------------------------------------- 
-|---------------------------------------------------------------------------- 
-|---------------------------------------------------------------------------- 
-|---------------------------------------------------------------------------- 
-|---------------------------------------------------------------------------- 
   Gt.2  It goes something like that,just play araound with the strings        
 
-|---------------------------------------------------------------------------- 
-|---------------------------------------------------------------------------- 
-|---------------------------------------------------------------------------- 
-|----------7-7-7-7-7-7-7-7-7-7-7--------------------------------------------- 
-|----------5-5-5-5-5-5-5-5-5-5-5-----44-44-44-44-44-44-44-44-44-------------- 
-|------------------------------------22-22-22-22-22-22-22-22-22-------------- 
  then....                               and also Gt.2            repeat       
 
-|---------------------------------------------------------------------------- 
-|---------------------------------------------------------------------------- 
-|---------------------------------------------------------------------------- 
-|---------------------------------------------------------------------------- 
-|--------------------4-4-4-4---4-4-4-4-4-4-7-7----4-4-4-4---4-4-4-4-4-4-7-7-- 
-|--------------------2-2-2-2---2-2-2-2-2-2-5-5----2-2-2-2---2-2-2-2-2-2-5-5-- 
  after 2nd Chorus                                                             
 
-|---------------------------------------------------------------------------- 
-|---------------------------------------------------------------------------- 
-|---------------------------------------------------------------------------- 
-|---------------------------------------------------------------------------- 
-|----2-2-2------4-4-4-4---4-4-4-4-4-4-7-7------4-4-4-4--7-7-7-7-------------- 
-|----0-0-0------2-2-2-2---2-2-2-2-2-2-5-5------2-2-2-2--5-5-5-5-------------- 
   PM......                                            PM.......               
 
-|---------------------------------------------------------------------------- 
-|---------------------------------------------------------------------------- 
-|---------------------------------------------------------------------------- 
-|---------------------------------------------------------------------------- 
-|--------------7-7-7-7--7-7-7-7--7-7-7-7--7-7-7-7---------------------------- 
-|--------------5-5-5-5--5-5-5-5--5-5-5-5--5-5-5-5---------------------------- 
   continue                                                                    
 
-|---------------------------------------------------------------------------- 
-|---------------------------------------------------------------------------- 
-|---------------------------------------------------------------------------- 
-|--------------------7-7-7-7-7-7-7-7-7-7-7-7-7------------------------------- 
-|--------------------5-5-5-5-5-5-5-5-5-5-5-5-5------------------------------- 
-|---------------------------------------------------------------------------- 
   2:18 continue                                                               
 
-|------------------------------0-00-0-00-0-00-0-00------0-00-0-00-0-00-0-00-- 
-|------------------------------2-22-2-22-2-22-2-22------0-00-0-00-0-00-0-00-- 
-|------------------------------2-22-2-22-2-22-2-22------1-11-1-11-1-11-1-11-- 
-|------------------------------2-22-2-22-2-22-2-22------2-22-2-22-2-22-2-22-- 
-|------------------------------0-00-0-00-0-00-0-00------2-22-2-22-2-22-2-22-- 
-|-------------------------------------------------------0-00-0-00-0-00-0-00-- 
  clean Chorus part                A                            E              
 
-|---2-22-2-22-2-22-2-22------------------------------------------------------ 
-|---2-22-2-22-2-22-2-22------------------------------------------------------ 
-|---2-22-2-22-2-22-2-22------------------------------------------------------ 
-|---4-44-4-44-4-44-4-44-------------------777777777777777--7-7-7-7-7--------- 
-|---4-44-4-44-4-44-4-44-------------------444444444444444--5-5-5-5-5--------- 
-|---2-22-2-22-2-22-2-22------------------------------------------------------ 
        F#                with distortion                                      
 
-|---------------------------------------------------------------------------- 
-|---------------------------------------------------------------------------- 
-|---------------------------------------------------------------------------- 
-|--7-7-7-7-7-7-7-7---2-2-2-2-2-2-2-2---4-4-4-4-4-4-4-4----7-7-7-7-7-7-7-7---- 
-|--7-7-7-7-7-7-7-7---2-2-2-2-2-2-2-2---4-4-4-4-4-4-4-4----4-4-4-4-4-4-4-4---- 
-|--5-5-5-5-5-5-5-5---0-0-0-0-0-0-0-0---2-2-2-2-2-2-2-2----------------------- 
  Chorus again                                                                 
 
-|---------------------------------------------------------------------------- 
-|---------------------------------------------------------------------------- 
-|---------------------------------------------------------------------------- 
-|---7-7-7-7-7-7-7-7---------------------------------------------------------- 
-|---5-5-5-5-5-5-5-5---------------------------------------------------------- 
-|---------------------------------------------------------------------------- 
                                                                               
 
-|---------------------------------------------------------------------------- 
-|---------------------------------------------------------------------------- 
-|---------------------------------------------------------------------------- 
-|------4--4--4--4----777777-----4--4--4--4----x-777-x-777-x-777-x-777--7777-- 
-|------4--4--4--4----555555-----4--4--4--4----x-555-x-555-x-555-x-555--5555-- 
-|------2--2--2--2---------------2--2--2--2----------------------------------- 
   END             PM.......                                                   
 
-|-------------0-00-0-00-0-00-0-00-0-00-0-00-0-------------------------------- 
-|-------------2-22-2-22-2-22-2-22-2-22-2-22-2-------------------------------- 
-|-------------2-22-2-22-2-22-2-22-2-22-2-22-2-------------------------------- 
-|-------------2-22-2-22-2-22-2-22-2-22-2-22-2-------------------------------- 
-|-------------0-00-0-00-0-00-0-00-0-00-0-00-0-------------------------------- 
-|---------------------------------------------------------------------------- 
   clean               A                         let ring..... 
	  

No existe una video leccione para esta canción

request
LosAcordes
Buscar
auto avanzar rasgueos aumentar disminuir cambiar color esconder acordes gráficos
losacordes exhibir acordes losacordes youTube video losacordes ocultar tabs losacordes ir hacia arriba losacordes