Sleeping With Sirens

Início > Sleeping W... > acordes

Tally It Up, Settle The Score Tablatura

Sleeping With Sirens

Dificultad:AdelantadoAdelantado

por ang-letra

tuner correct add songbook print version text version salvar en e-mail
acordesukuleletablaturabajobateríaarmónicaflautacavacopiano Guitar Pro
acordes

Tally It Up, Settle The Score

	  
Intro 

e|---0---0---0---0---0---0---0---0---0---0---0---0---0---0---0------------------| 
B|--5------5--------7--------8------12------12------12------12------------------| 
G|------------------------------------------------------------------------------| 
D|------------------------------------------------------------------------------| 
A|------------------------------------------------------------------------------| 
E|------------------------------------------------------------------------------| 
                                                                                    2x 
e|---0---0---0---0---0---0---0---0---0----0----0---0-----------0--------------| 
B|--5------5--------7--------8------12---10---8----7-----7h8p7----------------| 
G|----------------------------------------------------------------------------| 
D|----------------------------------------------------------------------------| 
A|----------------------------------------------------------------------------| 
E|----------------------------------------------------------------------------| 

Verse: 1 

e|----2h3p2---------------0-(x8)-----0--(x8)-----0--(x8)----0--(x8)---| 
B|------------3-----/5-----5-(x8)----\3--(x8)----\1--(x8)----0--(x8)--| 
G|--------------------------------------------------------------------|   2x 
D|--------------------------------------------------------------------| 
A|--------------------------------------------------------------------| 
E|--------------------------------------------------------------------| 

Pre-Chorus 

e|--------------------------------------------------------------------------------| 
B|--------------------------------------------------------------------------------| 
G|-------------------7-------5----------------------------------------------------| 
D|------2------------7-------5----------------------------------------------------| 
A|----- 2------------5-------3----------------------------------------------------| 
E|------2-------------------------------------------------------------------------| 

Chorus 

e|---0---0---0---0---0---0---0---0---0---0---0---0---0---0---0------------------| 
B|--5------5--------7--------8------12------12------12------12------------------| 
G|------------------------------------------------------------------------------| 
D|------------------------------------------------------------------------------| 
A|------------------------------------------------------------------------------| 
E|------------------------------------------------------------------------------| 
                                                                                    2x 
e|---0---0---0---0---0---0---0---0---0----0----0---0-----------0--------------| 
B|--5------5--------7--------8------12---10---8----7-----7h8p7----------------| 
G|----------------------------------------------------------------------------| 
D|----------------------------------------------------------------------------| 
A|----------------------------------------------------------------------------| 
E|----------------------------------------------------------------------------| 

Verse: 2 

e|---------------------------------------------------------------------| 
B|----8--------\7------/8-------\7-----/8------/12--(x8)----\10--(x8)--| 
G|----x--------x-------x--------x------x-------x------------x----------|    2x 
D|----5-------\4------/5-------\4-----/5-------/9--(x8)------\7--(x8)--| 
A|---------------------------------------------------------------------| 
E|---------------------------------------------------------------------| 

e|---------------------------------------| 
B|---------------------------------------| 
G|---------------------------------------|  2x 
D|---------------------------------------| 
A|---------------------------------------| 
E|------2-(x16)-------5-(x8)-----0-(x8)--| 


e|----2h3p2---------------0-(x8)-----0--(x8)---| 
B|------------3-----/5-----5-(x8)----\3--(x8)--| 
G|---------------------------------------------|  2x 
D|---------------------------------------------| 
A|---------------------------------------------| 
E|---------------------------------------------| 

Chorus: 2 

e|---0---0---0---0---0---0---0---0---0---0---0---0---0---0---0------------------| 
B|--5------5--------7--------8------12------12------12------12------------------| 
G|------------------------------------------------------------------------------| 
D|------------------------------------------------------------------------------| 
A|------------------------------------------------------------------------------| 
E|------------------------------------------------------------------------------| 
                                                                               2x 
e|---0---0---0---0---0---0---0---0---0----0----0---0-----------0--------------| 
B|--5------5--------7--------8------12---10---8----7-----7h8p7----------------| 
G|----------------------------------------------------------------------------| 
D|----------------------------------------------------------------------------| 
A|----------------------------------------------------------------------------| 
E|----------------------------------------------------------------------------| 

Breakdown 

e|-----------------------------------------------------------------------------| 
B|-----------------------------------------------------------------------------| 
G|-----------------------------------------------------------------------------| 3x 
D|-----------------------------------------------------------------------------| 
A|-----------------------------------------------------------------------------| 
E|------2-(x16)-------5-(x8)-----0-(x8)----------------------------------------| 

e|------------------------------------------------------------------------------| 
B|------------------------------------------------------------------------------| 
G|------------------------------------------------------------------------------| 
D|----------------2---2--------2---------------0x-------------------------------| 
A|----------------2---2--------2----(x2)-------0x-------------------------------| 
E|-----2-(x16)----2---2-------2----------------0x-------------------------------| 

e|-----------------------------------------------------------------------------| 
B|-----------------------------------------------------------------------------| 
G|-----------------------------------------------------------------------------| 
D|-----2----2----0----2--------------------------------------------------------| 
A|-----2----2----0----2----(x4)------------------------------------------------| 
E|------2----2----0----2-------------------------------------------------------| 

e|-----------------------------15-----14---------------------------------------| 
B|------------------------------------------15h17------------------------------| 
G|-----------------------------------------------------------------------------| 
D|------17----16---------------------------------------------------------------| 
A|-------------------17--------------------------------------------------------| 
E|-----------------------------------------------------------------------------| 

e|-----------------------------15-----14--------------15-----------------------| 
B|------------------------------------------15h17----------15-------17---------| 
G|-----------------------------------------------------------------------------| 
D|------17----16---------------------------------------------------------------| 
A|-------------------17--------------------------------------------------------| 
E|-----------------------------------------------------------------------------| 


e|-----12-------------12-----------12-----------17-----------17---------17------| 
B|-----------15-------------15-----------15-----------15----------15--------15--| 
G|-----14-------------14------------------------14-----------14-----------------|  2x 
D|------------------------------------------------------------------------------| 
A|------------------------------------------------------------------------------| 
E|------------------------------------------------------------------------------| 

Chorus: 3 

e|---0---0---0---0---0---0---0---0---0---0---0---0---0---0---0------------------| 
B|--5------5--------7--------8------12------12------12------12------------------| 
G|------------------------------------------------------------------------------| 
D|------------------------------------------------------------------------------| 
A|------------------------------------------------------------------------------| 
E|------------------------------------------------------------------------------| 
                                                                               2x 
e|---0---0---0---0---0---0---0---0---0----0----0---0-----------0--------------| 
B|--5------5--------7--------8------12---10---8----7-----7h8p7----------------| 
G|----------------------------------------------------------------------------| 
D|----------------------------------------------------------------------------| 
A|----------------------------------------------------------------------------| 
E|----------------------------------------------------------------------------| 
 
	  

No existe una video leccione para esta canción

request
LosAcordes
Buscar
auto avanzar rasgueos aumentar disminuir cambiar color esconder acordes gráficos
losacordes exhibir acordes losacordes youTube video losacordes ocultar tabs losacordes ir hacia arriba losacordes