Sleeping With Sirens

Início > Sleeping W... > acordes

Let's Cheers To This Tablatura

Sleeping With Sirens

Dificultad:AdelantadoAdelantado

por lucicamargo

tuner correct add songbook print version text version salvar en e-mail
acordesukuleletablaturabajobateríaarmónicaflautacavacopiano Guitar Pro
acordes

Let's Cheers To This

	  


Intro 
e|----8--8--8--8--8--7--7--7--7--7--------8-12---------10-12(x?)-15(x?)-15b-----| 
B|8h10-10-10-10-10-10-10-10-10-10-10-8h10p8----13-8h10p8------------------------| 
G|----------------------------------9-------------------------------------------| 
D|------------------------------------------------------------------------------| 
A|------------------------------------------------------------------------------| 
E|------------------------------------------------------------------------------| 

Verse 1 
e|---------------------------------------------------------------------------| 
B|---------------------------------------------------------------------------| 
G|8--8--8--8--8--8--8--8--8--8--8--8--8--8--8--8--8--8--8-8-8-8-8-8----------| 
D|9--9--9--9--9--9--9--9--9--9--9--9--9--9--9--9--9--9--9-9-9-9-9-9--(X2)----| 
A|12-12-12-12-12-12-11-11-11-11-11-11-10-10-10-10-10-10-9-9-9-9-9-9----------| 
E|---------------------------------------------------------------------------| 

Preverse 
e|---------------------------------------------------------------------------| 
B|---------------------------------------------------------------------------| 
G|12-12-12-12-12-12-12-12-12-12-12-12-12-12-12-12-12-12-12-12----------------| 
D|---------------------------------------------------------------------------| 
A|10-10-10-10-10-10-10-10-10-10-10-10-10-10-10-10-10-10-10-10----------------| 
E|---------------------------------------------------------------------------| 

Chorus (X2) 
e|----8--8--8--8--7--7--7--7---------8-12---------10-------------------------| 
B|8h10-10-10-10-10-10-10-10-10-8h10p8----13-8h10p8---------------------------| 
G|----------------------------9----------------------------------------------| 
D|---------------------------------------------------------------------------| 
A|---------------------------------------------------------------------------| 
E|---------------------------------------------------------------------------| 

e|-----8--8--8--8--7--7--7--7--12(x?)-15(x?)-15b-----------------------------| 
B|--8h10-10-10-10-10-10-10-10-10---------------------------------------------| 
G|---------------------------------------------------------------------------| 
D|---------------------------------------------------------------------------| 
A|---------------------------------------------------------------------------| 
E|---------------------------------------------------------------------------| 

                                           let ring 
Verse 2 
e|7h8p7-------------------------------------5--8--7--7-5---------------------| 
B|-----8-------------------------------------5--5--5----5--------------------| 
G|------9--------------------------14---------5--5--5----5-------------------| 
D|-------10-9h10p9-----10/14-17-14-14---(X2)---------------------------------| 
A|----------------10/12------------------------------------------------------| 
E|---------------------------------------------------------------------------| 

Preverse 
e|---------------------------------------------------------------------------| 
B|---------------------------------------------------------------------------| 
G|10--------14--------16---------17------------------------------------------| 
D|----(X12)-----(X12)-----(X12)-----(X7)-------------------------------------| 
A|8---------12--------14---------15------------------------------------------| 
E|---------------------------------------------------------------------------| 

Chorus (X2) 
e|----8--8--8--8--7--7--7--7---------8-12---------10-------------------------| 
B|8h10-10-10-10-10-10-10-10-10-8h10p8----13-8h10p8---------------------------| 
G|----------------------------9----------------------------------------------| 
D|---------------------------------------------------------------------------| 
A|---------------------------------------------------------------------------| 
E|---------------------------------------------------------------------------| 

e|-----8--8--8--8--7--7--7--7--12(x?)-15(x?)-15b-----------------------------| 
B|--8h10-10-10-10-10-10-10-10-10---------------------------------------------| 
G|---------------------------------------------------------------------------| 
D|---------------------------------------------------------------------------| 
A|---------------------------------------------------------------------------| 
E|---------------------------------------------------------------------------| 

Breakdown (X4) 
e|---------------------------------------------------------------------------| 
B|---------------------------------------------------------------------------| 
G|------------------9--9--9--9--9--9--9--9--9--9--9--9--9--9--9--9--9--9--9--| 
D|0-0-0-0-0-0-0-0--10-10-10-10-10-10-10-10-10-10-10-10-10-10-10-10-10-10-10--| 
A|0-0-0-0-0-0-0-0--12-12-12-12-12-12-12-12-12-12-12-12-12-12-12-12-12-12-12--| 
E|0-0-0-0-0-0-0-0------------------------------------------------------------| 

Chorus (X2) 
e|----8--8--8--8--7--7--7--7---------8-12---------10-------------------------| 
B|8h10-10-10-10-10-10-10-10-10-8h10p8----13-8h10p8---------------------------| 
G|----------------------------9----------------------------------------------| 
D|---------------------------------------------------------------------------| 
A|---------------------------------------------------------------------------| 
E|---------------------------------------------------------------------------| 

e|-----8--8--8--8--7--7--7--7--12(x?)-15(x?)-15b-----------------------------| 
B|--8h10-10-10-10-10-10-10-10-10---------------------------------------------| 
G|---------------------------------------------------------------------------| 
D|---------------------------------------------------------------------------| 
A|---------------------------------------------------------------------------| 
E|---------------------------------------------------------------------------| 

Breakdown (X2) 
e|---------------------------------------------------------------------------| 
B|---------------------------------------------------------------------------| 
G|------------------9--9--9--9--9--9--9--9--9--9--9--9--9--9--9--9--9--9--9--| 
D|0-0-0-0-0-0-0-0--10-10-10-10-10-10-10-10-10-10-10-10-10-10-10-10-10-10-10--| 
A|0-0-0-0-0-0-0-0--12-12-12-12-12-12-12-12-12-12-12-12-12-12-12-12-12-12-12--| 
E|0-0-0-0-0-0-0-0------------------------------------------------------------|  
	  

No existe una video leccione para esta canción

request
LosAcordes
Buscar
auto avanzar rasgueos aumentar disminuir cambiar color esconder acordes gráficos
losacordes exhibir acordes losacordes youTube video losacordes ocultar tabs losacordes ir hacia arriba losacordes