Sleeping With Sirens

Início > Sleeping W... > acordes

Let Love Bleed Red Tablatura

Sleeping With Sirens

Dificultad:PrincipiantePrincipiante

por IronPower4Ever

tuner correct add songbook print version text version salvar en e-mail
acordesukuleletablaturabajobateríaarmónicaflautacavacopiano Guitar Pro
acordes

Let Love Bleed Red

	  
Verse 1 e 2: 

B       Bb                    G# 
Is it naive to make plans that seem so far away? 

Then: 
e|----------------------------------------------------------| 
B|----------------------------------------------------------| 
G|-------------------------------3--------------------------| 
D|-------------1--4-----------1-----------------------------| 
A|-------2--4-----------2--4--------------------------------| 
E|----------------------------------------------------------| 

                 
Chorus: 

e|------------------------------------------------| 
B|------------------------------------------------| 
G|---4--4-----------------------------------------| 
D|---4--4--6--9--9--------------------------------| (2x) 
A|---2--1--6--9--9--------------------------------| 
E|---------4--6--7--------------------------------| 
 

e|------------------------------------------------| 
B|------------------------------------------------| 
G|------------------------------------------------| 
D|---6--9--9--------------------------------------|  (2x) 
A|---6--9--9--------------------------------------| 
E|---4--6--7--------------------------------------| 
 
 
e|------------------------------------------------| 
B|------------------------------------------------| 
G|--4----8----11----------------------------------| 
D|--x----x----x-----------------------------------|   
A|--2----6----9-----------------------------------| 
E|------------------------------------------------|                
  
	  

No existe una video leccione para esta canción

request
Aumentar uno tonoAumentar uno tono
Aumentar uno semi-tonoAumentar uno semi-tono
Disminuir uno semi-tonoDisminuir uno semi-tono
Disminuir uno tonoDisminuir uno semi-tono
LosAcordes
Buscar
auto avanzar rasgueos aumentar disminuir cambiar color esconder acordes gráficos
losacordes exhibir acordes losacordes youTube video losacordes ocultar tabs losacordes ir hacia arriba losacordes