Rojo

Início > Rojo > acordes

Eres Todopoderoso Tablatura

Rojo

Dificultad:ExpertoExperto

por JESSBT

tuner correct add songbook print version text version salvar en e-mail
acordesukuleletablaturabajobateríaarmónicaflautacavacopiano Guitar Pro
acordes

Eres Todopoderoso

(Juan Salinas)

	  TODO PODEROSO (ROJO) 

INTR. 
EI----------------------------------------------------------------------- 
BI----------------------------------------------------------------------- 
GI---------------7--6------7--6------7--6---7--6------7--6-----7--6- 
DI-----2--4------------7----------7----------------7---------7--------- 
AI--2--------2--------------------------------------------------------2- 
EI----------------------------------------------------------------------- 
(ESTE INTRO SE REPITE 2VECES) 


1era. Estrofa:.. 
(Va acompañado del siguiente arpegio): 
E---------------------------------------------------------------------- 
B-----3-------3---------3------3---------3------3---------3------3 
G---4---4--4-----4----4---4--4---4-----4---4--4---4-----4---4--4---4 
D-----------------------------------0------------------------------- 
A-2--------------------------------------------------0------ 
E-------------------3--------------------------------------------- 

      Bm               G       D             A 
La única razón de mi adoración eres tu mi Jesús 
      Bm          G          D          A 
El único motivo para vivir eres tu mi señor 
      Bm           G                D              A 
Mi única verdad esta en ti eres mi luz y mi salvación 
      Bm           G              D               A 
Mi único amor eres tu señor y por siempre te alabare 

CORO. 
      B        G 
Eres todopoderoso 
      D             A 
Eres grande y majestuoso 
      B          G 
Eres fuerte invencible 
      D             A 
Y no hay nadie como tu 


Se repite el intro. 
INTR. 
INTR. 
EI----------------------------------------------------------------------- 
BI----------------------------------------------------------------------- 
GI---------------7--6------7--6------7--6---7--6------7--6-----7--6- 
DI-----2--4------------7----------7----------------7---------7--------- 
AI--2--------2--------------------------------------------------------2- 
EI----------------------------------------------------------------------- 
(2 veces se repite  todo) 


La 2da estrofa es la misma que la primera pero  ya no se arpegia, 
se rasguea en unas partes 

      Bm              G        D            A 
La única razón de mi adoración eres tu mi Jesús 
      Bm        G            D         A 
El único motivo para vivir eres tu mi señor 

(ENTRA EL ARPEGIO) 
Mi única verdad esta en ti eres mi luz y mi salvación 
Mi único amor eres tu señor y por siempre te alabare 

CORO:2 veces 

SOLO: 

E||--14--10—-9*--------------10------12---14s17---14------ 
B||---------10*----------10------10--------------------15-- 
G||----------9*----9*--------------------------------- 
D||----------------9*--------------------------------- 
A||--------------------------------------------------- 
E||--------------------------------------------------- 


E||-14s16--14----------------------------------------------- 
B||------------15------15--14-----15--13------------------- 
G||----------------14----------14---------16--14---------- 
D||-----------------------------------------------14v--12--- 
A||--------------------------------------------------------16-14 
E||--------------------------------------------------- 

EL * SIGNIFICA QUE SE REPITE COMO 8 VECES 
(ESCUCHEN LA MUSICA PARA QUE USTEDES SE GUIEN) 
Y SON UNA SOLA NOTA O UN SOLO ACORDE (SE RASGEA) 

Sube de tono: 

Coro: 
C#m, A, E, B 



Final: 

EI---------------------------------------------------------------- 
BI---------------------------------------------------------------- 
GI------------9--8----9--8------9--8---9--8------9--8-----9--8--- 
DI----4--6---------9---------9---------------9---------9---------- 
AI--4-------4----------------------------------------------------4- 
EI-------------------------------------------------------------------- 

C#m
	  

No existe una video leccione para esta canción

request
Aumentar uno tonoAumentar uno tono
Aumentar uno semi-tonoAumentar uno semi-tono
Disminuir uno semi-tonoDisminuir uno semi-tono
Disminuir uno tonoDisminuir uno semi-tono
LosAcordes
Buscar
auto avanzar rasgueos aumentar disminuir cambiar color esconder acordes gráficos
losacordes exhibir acordes losacordes youTube video losacordes ocultar tabs losacordes ir hacia arriba losacordes