A B C D E F G H I J K L M N O P Q R S T U V X Y Z 0-9
Nightwish

Início > Nightwish > acordes

Nightwish

10th Man Down

Dificultad:FácilFácil

por peter

tuner corregir añadir para songbook version para impresion version de texto version rtf e-mail
acordestablaturabaixobateríaarmónicaflautacavacopiano Guitar Pro
acordes

10th Man Down

	  BY BORIS ZIVKOVIC!!! 
 
                                                                       Nightwish 
Emppu (Guitar) 
 
 
through the intro Tuomas does his keyboard thing.. and then Emppu comes in with the A riff 
                                                                                
E||------------------|------------------|------------------|------------------| 
B||------------------|------------------|------------------|------------------| 
G||------------------|------------------|------------------|------------------| 
D||------------------|------------------|------------------|------------------| 
A||------------------|------------------|------------------|------------------| 
E||------------------|------------------|------------------|------------------| 
 
 
                                                                             
------------------|------------------|------------------|------------------| 
------------------|------------------|------------------|------------------| 
------------------|------------------|------------------|------------------| 
------------------|------------------|------------------|------------------| 
------------------|------------------|------------------|------------------| 
------------------|------------------|------------------|------------------| 
 
 
                                                                              
------------------|------------------|-------------------|------------------| 
------------------|------------------|-------------------|------------------| 
------------------|------------------|--2----------------|------------------| 
------------------|------------------|--2----------------|------------------| 
------------------|------------------|--0----------------|------------------| 
------------------|------------------|-------------------|------------------| 
 
 
                                                              
------------------|--------------------|--------------------| 
------------------|--------------------|--------------------| 
------------------|--------------------|--2-----------------| 
------------------|--5--------3--------|--2------3----------| 
------------------|--5--------3--------|--0------3----------| 
------------------|--3--------1--------|---------1----------| 
 
 
                                                                            
--------------------|--------------------------|--------------------------| 
--------------------|--------------------------|--------------------------| 
---------2----------|--------------------------|--------------------------| 
--5------2----------|--7--7--7--7--7--7--7--7--|--3--3--3--3--3--3--3--3--| 
--5------0----------|--5--5--5--5--5--5--5--5--|--3--3--3--3--3--3--3--3--| 
--3-----------------|--------------------------|--1--1--1--1--1--1--1--1--| 
 
 
                                                                
--------------------|--------------------|--------------------| 
--------------------|--------------------|--------------------| 
--5--5--------------|--5--5--------------|--5--5--------------| 
--5--5--------------|--5--5--------------|--5--5--------------| 
--3--3--------------|--3--3--------------|--3--3--------------| 
--------------------|--------------------|--------------------| 
 
 
                                                                 
---------------------|--------------------|--------------------| 
---------------------|--------------------|--------------------| 
--3--------8----7----|--5-----------------|--3------5----------| 
--3--------8----7----|--5------6----------|--3------5----------| 
--1--------6----5----|--3------6----------|--1------3----------| 
---------------------|---------4----------|--------------------| 
 
 
                                                                           
--------------------------|-------------------|--------------------------| 
--------------------------|-------------------|--------------------------| 
--------------------------|-------------------|--2--------2--------------| 
--3--3--3--3--3--3--3--3--|--6----------------|--2--------3--------------| 
--3--3--3--3--3--3--3--3--|--6----------------|--0--0--0--0--0--0--0--0--| 
--1--1--1--1--1--1--1--1--|--4----------------|--------------------------| 
 
 
                                                                            
--------------------------|--------------------------|--------------------| 
--------------------------|--------------------------|--------------------| 
--------------2-----2-----|--2--------2--------------|--------------------| 
--5-----5-----2-----2-----|--2--------3--------------|--5--------3--------| 
--5-----5-----0--0--0--0--|--0--0--0--0--0--0--0--0--|--5--------3--------| 
--3--3--3--3--------------|--------------------------|--3--------1--------| 
 
 
                                                                           
--------------------------|-------------------------|--------------------| 
--------------------------|-------------------------|--------------------| 
--------------------------|-------------------------|--------------------| 
--2--------3--------3-----|--5-----5/----7-----7/---|--0--------------3--| 
-----0--0-----0--0-----0--|-----0-----0-----0-------|--------------------| 
--------------------------|-------------------------|--------------------| 
 
 
                                                                          
------------------|--------------------------|--------------------------| 
------------------|--------------------------|--------------------------| 
------------------|--2--------2--------------|--------------2-----2-----| 
------------------|--2--------3--------------|--5-----5-----2-----2-----| 
------------------|--0--0--0--0--0--0--0--0--|--5-----5-----0--0--0--0--| 
------------------|--------------------------|--3--3--3--3--------------| 
 
 
                                                                            
--------------------------|--------------------|--------------------------| 
--------------------------|--------------------|--------------------------| 
--2--------2--------------|--------------------|--------------------------| 
--2--------3--------------|--5--------3--------|--2--------3--------3-----| 
--0--0--0--0--0--0--0--0--|--5--------3--------|-----0--0-----0--0-----0--| 
--------------------------|--3--------1--------|--------------------------| 
 
 
                                                                   
-------------------------|--------------------|------------------| 
-------------------------|--------------------|------------------| 
-------------------------|--------------------|------------------| 
--5-----5/----7-----7----|--0--------------3--|------------------| 
-----0-----0-----0-------|--------------------|------------------| 
-------------------------|--------------------|------------------| 
 
 
                                                                           
---------------------|-------------------|-------------------------------| 
---------------------|-------------------|-------------------------------| 
---------------------|-------------------|--2----------2----------2------| 
--2------------3--2--|--0----------------|--2----------2----------2------| 
--3------------5--3--|--2----------------|--0--0-0-0-0-0--0-0-0-0-0--0-0-| 
---------------------|-------------------|-------------------------------| 
 
 
                                                             
---------------------------|-------------------------------| 
---------------------------|-------------------------------| 
------2----------2----5----|------------------------7--7-7-| 
------2----------2----5----|--2----------2----------7--7-7-| 
--0-0-0--0-0-0-0-0----3----|--2----------2----------5--5-5-| 
---------------------------|--0--0-0-0-0-0--0-0-0-0--------| 
 
 
                                                             
---------------------------|-------------------------------| 
---------------------------|-------------------------------| 
--7-7-7--7-7-7-7-5----4----|--2----------2----------2------| 
--7-7-7--7-7-7-7-5----4----|--2----------2----------2------| 
--5-5-5--5-5-5-5-3----2----|--0--0-0-0-0-0--0-0-0-0-0--0-0-| 
---------------------------|-------------------------------| 
 
 
                                                             
---------------------------|-------------------------------| 
---------------------------|-------------------------------| 
------2----------2----5----|------------------------7--7-7-| 
------2----------2----5----|--3----------3----------7--7-7-| 
--0-0-0--0-0-0-0-0----3----|--3----------3----------5--5-5-| 
---------------------------|--1--1-1-1-1-1--1-1-1-1--------| 
 
 
                                                        
---------------------------|--------------------------| 
---------------------------|--------------------------| 
--7-7-7--7-7-7-7-5---------|--2--------2--------------| 
--7-7-7--7-7-7-7-5----5----|--2--------3--------------| 
--5-5-5--5-5-5-5-3----5----|--0--0--0--0--0--0--0--0--| 
----------------------3----|--------------------------| 
 
 
                                                                            
--------------------------|--------------------------|--------------------| 
--------------------------|--------------------------|--------------------| 
--------------2-----2-----|--2--------2--------------|--------------------| 
--5-----5-----2-----2-----|--2--------3--------------|--5--------3--------| 
--5-----5-----0--0--0--0--|--0--0--0--0--0--0--0--0--|--5--------3--------| 
--3--3--3--3--------------|--------------------------|--3--------1--------| 
 
 
                                                                           
--------------------------|-------------------------|--------------------| 
--------------------------|-------------------------|--------------------| 
--------------------------|-------------------------|--------------------| 
--2--------3--------3-----|--5-----5/----7-----7/---|--0--------------3--| 
-----0--0-----0--0-----0--|-----0-----0-----0-------|--------------------| 
--------------------------|-------------------------|--------------------| 
 
 
                                                                          
------------------|--------------------------|--------------------------| 
------------------|--------------------------|--------------------------| 
------------------|--2--------2--------------|--------------2-----2-----| 
------------------|--2--------3--------------|--5-----5-----2-----2-----| 
------------------|--0--0--0--0--0--0--0--0--|--5-----5-----0--0--0--0--| 
------------------|--------------------------|--3--3--3--3--------------| 
 
 
                                                                            
--------------------------|--------------------|--------------------------| 
--------------------------|--------------------|--------------------------| 
--2--------2--------------|--------------------|--------------------------| 
--2--------3--------------|--5--------3--------|--2--------3--------3-----| 
--0--0--0--0--0--0--0--0--|--5--------3--------|-----0--0-----0--0-----0--| 
--------------------------|--3--------1--------|--------------------------| 
 
 
                                                                   
-------------------------|--------------------|------------------| 
-------------------------|--------------------|------------------| 
-------------------------|--------------------|------------------| 
--5-----5/----7-----7----|--0--------------3--|------------------| 
-----0-----0-----0-------|--------------------|------------------| 
-------------------------|--------------------|------------------| 
 
 
                                                                           
---------------------|-------------------|-------------------------------| 
---------------------|-------------------|-------------------------------| 
---------------------|-------------------|--2----------2----------2------| 
--2------------3--2--|--0----------------|--2----------2----------2------| 
--3------------5--3--|--2----------------|--0--0-0-0-0-0--0-0-0-0-0--0-0-| 
---------------------|-------------------|-------------------------------| 
 
 
                                                             
---------------------------|-------------------------------| 
---------------------------|-------------------------------| 
------2----------2----5----|------------------------7--7-7-| 
------2----------2----5----|--2----------2----------7--7-7-| 
--0-0-0--0-0-0-0-0----3----|--2----------2----------5--5-5-| 
---------------------------|--0--0-0-0-0-0--0-0-0-0--------| 
 
 
                                                             
---------------------------|-------------------------------| 
---------------------------|-------------------------------| 
--7-7-7--7-7-7-7-5----4----|--2----------2----------2------| 
--7-7-7--7-7-7-7-5----4----|--2----------2----------2------| 
--5-5-5--5-5-5-5-3----2----|--0--0-0-0-0-0--0-0-0-0-0--0-0-| 
---------------------------|-------------------------------| 
 
 
                                                             
---------------------------|-------------------------------| 
---------------------------|-------------------------------| 
------2----------2----5----|------------------------7--7-7-| 
------2----------2----5----|--3----------3----------7--7-7-| 
--0-0-0--0-0-0-0-0----3----|--3----------3----------5--5-5-| 
---------------------------|--1--1-1-1-1-1--1-1-1-1--------| 
 
 
                                                    
---------------------------|----------------------| 
---------------------------|----------------------| 
--7-7-7--7-7-7-7-5---------|--2-------------------| 
--7-7-7--7-7-7-7-5----5----|--2----2----3----5----| 
--5-5-5--5-5-5-5-3----5----|--0----2----3----5----| 
----------------------3----|-------0----1----3----| 
 
 
                                                                 
----------------------------------|----------------------------| 
----------------------------------|----------------------------| 
--2-------2----3--2-------2----5--|--2-------2----3-------3----| 
--2-------2----3--2-------2----5--|--2-------2----3--5----3----| 
--0--0-0--0--0-1--0--0-0--0--0-3--|--0--0-0--0--0-1--5----1----| 
----------------------------------|------------------3---------| 
 
 
                                                         
----------------------------------|--------------------| 
----------------------------------|--------------------| 
--2-------2----3--2-------2----5--|--3--------7--------| 
--2-------2----3--2-------2----5--|--3--------7--------| 
--0--0-0--0--0-1--0--0-0--0--0-3--|--1--------5--------| 
----------------------------------|--------------------| 
 
 
                                                                 
----------------------------------|----------------------------| 
----------------------------------|----------------------------| 
--2-------2----3--2-------2----5--|--2-------2----3-------3----| 
--2-------2----3--2-------2----5--|--2-------2----3--5----3----| 
--0--0-0--0--0-1--0--0-0--0--0-3--|--0--0-0--0--0-1--5----1----| 
----------------------------------|------------------3---------| 
 
 
                                                          
----------------------------------|---------------------| 
----------------------------------|---------------------| 
--2-------2----3--2-------2----5--|--7--------5---------| 
--2-------2----3--2-------2----5--|--7--------5----5----| 
--0--0-0--0--0-1--0--0-0--0--0-3--|--5--------3----5----| 
----------------------------------|----------------3----| 
 
 
                                                                 
----------------------------------|----------------------------| 
-------------------------------1--|----------------------------| 
--2-------2----3--2-------2----0--|--2-------2----3-------3----| 
--2-------2----3--2-------2-------|--2-------2----3--5----3----| 
--0--0-0--0--0-1--0--0-0--0--0-3--|--0--0-0--0--0-1--5----1----| 
----------------------------------|------------------3---------| 
 
 
                                                         
----------------------------------|--------------------| 
----------------------------------|--------------------| 
--2-------2----3--2-------2----5--|--3--------7--------| 
--2-------2----3--2-------2----5--|--3--------7--------| 
--0--0-0--0--0-1--0--0-0--0--0-3--|--1--------5--------| 
----------------------------------|--------------------| 
 
 
                                                                 
----------------------------------|----------------------------| 
----------------------------------|----------------------------| 
--2-------2----3--2-------2----5--|--2-------2----3-------3----| 
--2-------2----3--2-------2----5--|--2-------2----3--5----3----| 
--0--0-0--0--0-1--0--0-0--0--0-3--|--0--0-0--0--0-1--5----1----| 
----------------------------------|------------------3---------| 
 
 
                                                          
----------------------------------|---------------------| 
----------------------------------|---------------------| 
--2-------2----3--2-------2----5--|--7--------5---------| 
--2-------2----3--2-------2----5--|--7--------5----5----| 
--0--0-0--0--0-1--0--0-0--0--0-3--|--5--------3----5----| 
----------------------------------|----------------3----| 
 
 
                                                            
-------------------------------|--------------------------| 
-------------------------------|--------------------------| 
-------------------------------|--------------------------| 
--2--2-2--2----2--2-2--2--2-2--|--2----2--2-2--2--2--3----| 
--2--2-2--2----2--2-2--2--2-2--|--2----2--2-2--2--2--3----| 
--0--0-0--0----0--0-0--0--0-0--|--0----0--0-0--0--0--1----| 
 
 
                                                             
-------------------------------|---------------------13~---| 
-------------------------------|---------------------13~---| 
-------------------------------|---------------------------| 
--2--2-2--2----2--2-2--2--2-2--|--2----2--2-2--2--2--------| 
--2--2-2--2----2--2-2--2--2-2--|--2----2--2-2--2--2--------| 
--0--0-0--0----0--0-0--0--0-0--|--0----0--0-0--0--0--------| 
 
 
                                                                 
-------------------------------|-------------------------------| 
-------------------------------|-------------------------------| 
-------------------------------|-------------------------------| 
--2--2-2--2----2--2-2--2--2-2--|--2--2-2--2----2--2-2--2--2-2--| 
--2--2-2--2----2--2-2--2--2-2--|--2--2-2--2----2--2-2--2--2-2--| 
--0--0-0--0----0--0-0--0--0-0--|--0--0-0--0----0--0-0--0--0-0--| 
 
 
                                                            
--------------------------|-------------------------------| 
--------------------------|-------------------------------| 
--------------------------|-------------------------------| 
--2----2--2-2--2--2--3----|--2--2-2--2----2--2-2--2--2-2--| 
--2----2--2-2--2--2--3----|--2--2-2--2----2--2-2--2--2-2--| 
--0----0--0-0--0--0--1----|--0--0-0--0----0--0-0--0--0-0--| 
 
 
                                                           
-------------------------|-------------------------------| 
-------------------------|-------------------------------| 
---------------5----7----|-------------------------------| 
--2----2--2-2--5----7----|--2--2-2--2----2--2-2--2--2-2--| 
--2----2--2-2--3----5----|--2--2-2--2----2--2-2--2--2-2--| 
--0----0--0-0------------|--0--0-0--0----0--0-0--0--0-0--| 
 
 
                                                            
--------------------------|-------------------------------| 
--------------------------|-------------------------------| 
--------------------------|-------------------------------| 
--2----2--2-2--2--2--3----|--2--2-2--2----2--2-2--2--2-2--| 
--2----2--2-2--2--2--3----|--2--2-2--2----2--2-2--2--2-2--| 
--0----0--0-0--0--0--1----|--0--0-0--0----0--0-0--0--0-0--| 
 
 
                                                                      
-------------------------|--------------------|---------------------| 
-------------------------|--------------------|---------------------| 
---------------5----7----|--2-----------------|--2------------------| 
--2----2--2-2--5----7----|--2------------5----|--2--------3----5----| 
--2----2--2-2--3----5----|--0------------5----|--0--------3----5----| 
--0----0--0-0------------|---------------3----|-----------1----3----| 
 
 
                                                               
--------------------|-------------------|--------------------| 
--------------------|-------------------|--------------------| 
--2-----------------|--7----------------|--2-----------------| 
--2--------5--------|--7----------------|--2------------5----| 
--0--------5--------|--5----------------|--0------------5----| 
-----------3--------|-------------------|---------------3----| 
 
 
                                                                
---------------------|--------------------|-------------------| 
---------------------|--------------------|-------------------| 
--2------------------|--2--------5--------|-------------------| 
--2--------3----5----|--2--------5--------|--5----------------| 
--0--------3----5----|--0--------3--------|--5----------------| 
-----------1----3----|--------------------|--3----------------| 
 
 
                                                                       
------------------|------------------|-------------------------------| 
------------------|------------------|-------------------------------| 
------------------|------------------|-------------------------------| 
------------------|------------------|-------------------------------| 
------------------|------------------|--2--2-2--2----2--2-2--2--2-2--| 
------------------|------------------|--0--0-0--0----0--0-0--0--0-0--| 
 
 
                                                           
-------------------------|-------------------------------| 
-------------------------|-------------------------------| 
---------------2----7----|-------------------------------| 
---------------2----7----|--2--2-2--2----2--2-2--2--2-2--| 
--2----2--2-2--0----5----|--2--2-2--2----2--2-2--2--2-2--| 
--0----0--0-0------------|--0--0-0--0----0--0-0--0--0-0--| 
 
 
                                                           
-------------------------|-------------------------------| 
-------------------------|-------------------------------| 
--------------------7----|-------------------------------| 
--2----2--2-2--5----7----|--2--2-2--2----2--2-2--2--2-2--| 
--2----2--2-2--5----5----|--2--2-2--2----2--2-2--2--2-2--| 
--0----0--0-0--3---------|--0--0-0--0----0--0-0--0--0-0--| 
 
 
                                                           
-------------------------|-------------------------------| 
-------------------------|-------------------------------| 
---------------2----7----|-----------------------5--5-5--| 
--2----2--2-2--2----7----|--5--5-5--5----5--5-5--5--5-5--| 
--2----2--2-2--0----5----|--5--5-5--5----5--5-5--3--3-3--| 
--0----0--0-0------------|--3--3-3--3----3--3-3----------| 
 
 
                                                           
-------------------------|-------------------------------| 
-------------------------|-------------------------------| 
---------------3---------|-----------------------5--5-5--| 
--5----5--5-5--3----3----|--5--5-5--5----5--5-5--5--5-5--| 
--5----5--5-5--1----3----|--5--5-5--5----5--5-5--3--3-3--| 
--3----3--3-3-------1----|--3--3-3--3----3--3-3----------| 
 
 
                                                           
-------------------------|-------------------------------| 
-------------------------|-------------------------------| 
---------------5---------|-------------------------------| 
--5----5--5-5--5----3----|--2--2-2--2----2--2-2--2--2-2--| 
--5----5--5-5--3----3----|--2--2-2--2----2--2-2--2--2-2--| 
--3----3--3-3-------1----|--0--0-0--0----0--0-0--0--0-0--| 
 
 
                                                           
-------------------------|-------------------------------| 
-------------------------|-------------------------------| 
--------------------7----|-------------------------------| 
--2----2--2-2--5----7----|--2--2-2--2----2--2-2--2--2-2--| 
--2----2--2-2--5----5----|--2--2-2--2----2--2-2--2--2-2--| 
--0----0--0-0--3---------|--0--0-0--0----0--0-0--0--0-0--| 
 
 
                                                           
-------------------------|-------------------------------| 
-------------------------|-------------------------------| 
---------------2----7----|-----------------------5--5-5--| 
--2----2--2-2--2----7----|--5--5-5--5----5--5-5--5--5-5--| 
--2----2--2-2--0----5----|--5--5-5--5----5--5-5--3--3-3--| 
--0----0--0-0------------|--3--3-3--3----3--3-3----------| 
 
 
                                                           
-------------------------|-------------------------------| 
-------------------------|-------------------------------| 
---------------3---------|-----------------------5--5-5--| 
--5----5--5-5--3----3----|--5--5-5--5----5--5-5--5--5-5--| 
--5----5--5-5--1----3----|--5--5-5--5----5--5-5--3--3-3--| 
--3----3--3-3-------1----|--3--3-3--3----3--3-3----------| 
 
 
                                                              
-------------------------|----------------------------------| 
-------------------------|----------------------------------| 
---------------5---------|--2-------2----3--2-------2----5--| 
--5----5--5-5--5----3----|--2-------2----3--2-------2----5--| 
--5----5--5-5--3----3----|--0--0-0--0--0-1--0--0-0--0--0-3--| 
--3----3--3-3-------1----|----------------------------------| 
 
 
                                                                 
----------------------------|----------------------------------| 
----------------------------|----------------------------------| 
--2-------2----3-------3----|--2-------2----3--2-------2----5--| 
--2-------2----3--5----3----|--2-------2----3--2-------2----5--| 
--0--0-0--0--0-1--5----1----|--0--0-0--0--0-1--0--0-0--0--0-3--| 
------------------3---------|----------------------------------| 
 
 
                                                         
--------------------|----------------------------------| 
--------------------|----------------------------------| 
--3--------7--------|--2-------2----3--2-------2----5--| 
--3--------7--------|--2-------2----3--2-------2----5--| 
--1--------5--------|--0--0-0--0--0-1--0--0-0--0--0-3--| 
--------------------|----------------------------------| 
 
 
                                                                 
----------------------------|----------------------------------| 
----------------------------|----------------------------------| 
--2-------2----3-------3----|--2-------2----3--2-------2----5--| 
--2-------2----3--5----3----|--2-------2----3--2-------2----5--| 
--0--0-0--0--0-1--5----1----|--0--0-0--0--0-1--0--0-0--0--0-3--| 
------------------3---------|----------------------------------| 
 
 
                                                                              
---------------------|----------------------|-------------------------------| 
---------------------|----------------------|-------------------------------| 
--7--------5---------|--2-------------------|--2----------2----------2------| 
--7--------5----5----|--2----2----3----5----|--2----------2----------2------| 
--5--------3----5----|--0----2----3----5----|--0--0-0-0-0-0--0-0-0-0-0--0-0-| 
----------------3----|-------0----1----3----|-------------------------------| 
 
 
                                                             
---------------------------|-------------------------------| 
---------------------------|-------------------------------| 
------2----------2----5----|------------------------7------| 
------2----------2----5----|--2----------2----------7------| 
--0-0-0--0-0-0-0-0----3----|--2----------2----------5--5-5-| 
---------------------------|--0--0-0-0-0-0--0-0-0-0--------| 
 
 
                                                             
---------------------------|-------------------------------| 
---------------------------|-------------------------------| 
------7----------5----4----|--2----------2----------2------| 
------7----------5----4----|--2----------2----------2------| 
--5-5-5--5-5-5-5-3----2----|--0--0-0-0-0-0--0-0-0-0-0--0-0-| 
---------------------------|-------------------------------| 
 
 
                                                             
---------------------------|-------------------------------| 
---------------------------|-------------------------------| 
------2----------2----5----|------------------------7------| 
------2----------2----5----|--3----------3----------7------| 
--0-0-0--0-0-0-0-0----3----|--3----------3----------5--5-5-| 
---------------------------|--1--1-1-1-1-1--1-1-1-1--------| 
 
 
                                                             
---------------------------|-------------------------------| 
---------------------------|-------------------------------| 
------7----------5---------|--2----------2----------2------| 
------7----------5----5----|--2----------2----------2------| 
--5-5-5--5-5-5-5-3----5----|--0--0-0-0-0-0--0-0-0-0-0--0-0-| 
----------------------3----|-------------------------------| 
 
 
                                                             
---------------------------|-------------------------------| 
---------------------------|-------------------------------| 
------2----------2----5----|------------------------7------| 
------2----------2----5----|--2----------2----------7------| 
--0-0-0--0-0-0-0-0----3----|--2----------2----------5--5-5-| 
---------------------------|--0--0-0-0-0-0--0-0-0-0--------| 
 
 
                                                             
---------------------------|-------------------------------| 
---------------------------|-------------------------------| 
------7----------5----4----|--2----------2----------2------| 
------7----------5----4----|--2----------2----------2------| 
--5-5-5--5-5-5-5-3----2----|--0--0-0-0-0-0--0-0-0-0-0--0-0-| 
---------------------------|-------------------------------| 
 
 
                                                             
---------------------------|-------------------------------| 
---------------------------|-------------------------------| 
------2----------2----5----|------------------------7------| 
------2----------2----5----|--3----------3----------7------| 
--0-0-0--0-0-0-0-0----3----|--3----------3----------5--5-5-| 
---------------------------|--1--1-1-1-1-1--1-1-1-1--------| 
 
 
                                                                        
---------------------------|----------------------|-------------------| 
---------------------------|----------------------|-------------------| 
------7----------5---------|--2-------------------|--2----------------| 
------7----------5----5----|--2----2----3----5----|--2----------------| 
--5-5-5--5-5-5-5-3----5----|--0----2----3----5----|--0----------------| 
----------------------3----|-------0----1----3----|-------------------| 
 
 
                                        
------------------|------------------|| 
------------------|------------------|| 
------------------|------------------|| 
------------------|------------------|| 
------------------|------------------|| 
------------------|------------------|| 
 

	  

Solicitar el vídeo de "10th Man Down" - Descargar 10th Man Down mp3

No existe una video leccione para esta canción

solicitar
140

Envie sus comentários.

1 comentários

love1985love1985
hace 1540 años atrás
i am interested to know you, dear please i will like you to contact me to my email, (Ritasimon92@(ymail).(com)
 
LosAcordes
Buscar
auto avanzar rasgueos aumentar disminuir cambiar color esconder acordes gráficos
losacordes exhibir acordes losacordes youTube video losacordes ocultar tabs losacordes cambiar notación losacordes ir hacia arriba losacordes