A B C D E F G H I J K L M N O P Q R S T U V X Y Z 0-9
Misc Soundtrack

Início > Misc Sound... > acordes

Misc Soundtrack

Cloud Atlas Sextet - Atlas March

Dificultad:ExpertoExperto

por ang-letra

tuner corregir añadir para songbook version para impresion version de texto version rtf e-mail
acordestablaturabajobateríaarmónicaflautacavacopiano Guitar Pro
acordes

Cloud Atlas Sextet - Atlas March

	  

Cloud Atlas Sextet  
Standard Tuning 
Intro 
e|----------3--3--------3--3--------3--3-----------|----------3--3--------3--3--------3--3-------/5~ 
B|----1-----------0-----------1------------1-------|----1-----------0-----------1-----------1------- 
G|-0---------------------------------------------2-|-0-----------------------------------------2---- 
D|-2---------------------------------------------3-|-2---------------------------------------------- 
A|-3-----0-----------------0-----------------------|-3-----0-----------------0---------------------- 
E|-------------0-----3-----------0-----1------1----|-------------0-----3-----------0-----1---------- 

e|----10--8--7------8--7------10--8---------|----------------------------------------------| 
B|-8------------8---------10---------10~----|----3--1--0------1--0------3--1--0~----3~-----| 
G|-----------------------------------10~----|-0-----------0---------2---------0~----2~-----| 
D|-----------------------------------10~----|-2-----------2---------2---------0~----0~-----| 
A|------------------------0-----------------|-3-----------2---------0---------x~----x~-----| 
E|-8------------0---------------------------|------------(0)------------------3~----2~-----| 

Pre-Chorus 
e|----------3--3-------3--3-------3--3------|---| 
B|----1--3--------0~---------1~---------1~--|---| 
G|-0---------------------------------2------|-2-| 
D|-2----------------------2-----------------|-0-| 
A|-3-----------2----------0-----------------|---| 
E|-------------0---------------------1------|---| 

Chorus 
e-------------------3-----3-----------------3-----3-----------------3-----3-----------------------| 
B-------1-----3-----------------0-----------------------1-----------------------1-----------0-----| 
G-0---0---0-----0-----0-----0-----0-------0---0-----0-----0-------0---0-----2-----2-------2---2---| 
D-2-2-------2-----2-----2-----2-----2---2-------2-----2-----2---2-------2-----3-----3---3-------3-| 
A-3-----------------------------------------------0-----------0-----------------------------------| 
E-------------------------0-----------0-----------------------------------1-----------1-----------| 

e-------------------------------------------------------------------------------------------------| 
B-------3-----1-----0-----------------1-----0-----------------3-----1-----------0-----------0-----| 
G-----0---0-----0-----0---------0---------------------2-----2---2-----2-------0---0-------2---2---| 
D---2-------2-----2-----2-----2---2-----2-----2-----2-----2-------2-----2---0-------0---3-------3-| 
A-3-------------------------2-------2-----2-----2-0-----0-----------------------------------------| 
E-------------------------0-----------------------------------------------3-----------1-----------| 

e-------------------3-----3-----------------3-----3-----------------3-----3-----------------------| 
B-------1-----3-----------------0-----------------------1-----------------------1-----------0-----| 
G-0---0---0-----0-----0-----0-----0-------0---0-----0-----0-------0---0-----2-----2-------2---2---| 
D-2-2-------2-----2-----2-----2-----2---2-------2-----2-----2---2-------2-----3-----3---3-------3-| 
A-3-----------------------------------------------0-----------0-----------------------------------| 
E-------------------------0-----------0-----------------------------------1-----------1-----------| 

e----------------------------------------------------------------------------------------------8~-| 
B-------3-----1-----0-----------------1-----0--------------------------------------10~---------8~-| 
G-----0---0-----0-----0---------0-----------------------5-----7-----5-----------10~---10~------9~-| 
D---2-------2-----2-----2-----2---2-----2-----2-------5---5-----5-----5------10~---------10~--10~-| 
A-3-------------------------2-------2-----2-----2---7-------7-----7-----7--8~-----------------10~-| 
E-------------------------0-----------------------5--------------------------------------------8~-| 
	  

Solicitar el vídeo de "Cloud Atlas Sextet - Atlas March" - Descargar Cloud Atlas Sextet - Atlas March mp3

No existe una video leccione para esta canción

solicitar
140

Envie sus comentários.

0 comentários

 
LosAcordes
Buscar
auto avanzar rasgueos aumentar disminuir cambiar color esconder acordes gráficos
losacordes exhibir acordes losacordes youTube video losacordes ocultar tabs losacordes cambiar notación losacordes ir hacia arriba losacordes