A B C D E F G H I J K L M N O P Q R S T U V X Y Z 0-9
Maná

Início > Maná > acordes

Maná

Angel de Amor

Dificultad:AdelantadoAdelantado

por drkblaze

tuner corregir añadir para songbook version para impresion version de texto version rtf e-mail
acordestablaturabajobateriaarmónicaflautacavacopiano Guitar Pro
acordes

Angel de Amor

Áño: 2002 - Álbum: Revolucion De Amor

	  Intro : Clean Guitar 
  2x 
e|----------------------------------------------| 
B|----12----10------12h9------------------------| 
G|--9-----9------9------------------------------| 
D|----------------------------------------------| 
A|----------------------------------------------| 
E|----------------------------------------------| 
   At 3rd time this: 
e|-------------------------9--9--10--10---9-----| 
B|----12----10------12h9------------------------| 
G|--9-----9------9------------------------------| 
D|----------------------------------------------| 
A|----------------------------------------------| 
E|----------------------------------------------| 
 
 
Then Guitar 1 plays Intro and Guitar 2 plays this at the same time: 
Listen to the song for Strumming Pattern. 
 
Guitar 1 Clean 
 Fill 1 
e|-----------------------------------------------------| 
B|------------9----------------------------------------| 
G|--11--9h11-----9h11--11----11---9h11---7-7-7---9-9-9-| 
D|-----------------------------------------------------| 
A|-----------------------------------------------------| 
E|-----------------------------------------------------| 
 
 
Guitar 2 Distortion 
 4 Times 
    F    D    E     C#           Final Strum 
e|----------------------------------------------------------| 
B|----------------------------------------------------------| 
G|-11----7----9-----6------------------11-------------------| 
D|-11----7----9-----6------------------11------{ Fill 1 }---| 
A|-9-----5----7-----4------------------9--------------------| 
E|-x-----x----x-----x------------------x--------------------| 
 
On the verse just Guitar 1 Strums this slowly, followed by the next fills: 
 
Fill 2 
 
e|--------4-------------------------------------| 
B|-----5-----5------7-7-------5-----------------| 
G|--6-----------6--------6-------6---6/7--------| 
D|----------------------------------------------| 
A|----------------------------------------------| 
E|----------------------------------------------| 
 
Fill 3 
 
e|--------5---------7-7------4------5-5-----------| 
B|-----5-----5------------------5-----------------| 
G|--6-----------6--------6------------------------| 
D|------------------------------------------------| 
A|------------------------------------------------| 
E|------------------------------------------------| 
 
 
Verse: 
Listen the song for Strumming 
 
     F# 
e|---4-------------------------4------------------| 
B|---7-------------------------7------------------| 
G|---6---------{ Fill 2 }------6------{ Fill 3 }--| 
D|---4-------------------------4------------------| 
A|---4-------------------------4------------------| 
E|------------------------------------------------| 
 
 Pre-Chorus: 
 
 Both Guitars Distortion 
 
e|---------------------------------------------------| 
B|---------------------------------------------------| 
G|--7-----9----6-------------------------------------| 
D|--7-----9----6-------------------------------------| 
A|--5-----7----4---------7--9------------------------| 
E|--x-----x----x------9------------------------------| 
 
 
Chorus: 
 
Guitar 1 plays Intro, Guitar 2 this: 
 
    F    D    E     C# 
e|----------------------------------------------------------| 
B|----------------------------------------------------------| 
G|-11----7----9-----6---------------------------------------| 
D|-11----7----9-----6---------------------------------------| 
A|-9-----5----7-----4---------------------------------------| 
E|-x-----x----x-----x---------------------------------------| 
 
  To ens the Chorus this: 
e|-------------------------------------------------------| 
B|-------------------------------------------------------| 
G|-11--11-----7--7----6---7----9-------------------------| 
D|-11--11-----7--7----6---7----9-------------------------| 
A|-9---9------5--5----4---5----7-------------------------| 
E|-x---x------x--x----x---x----x-------------------------| 
 
 
Solo : 
 
This is how i hear it: 
 
 Guitar 1 with Medium Distortion 
 
  Listen song for Exact Strumming 
 
e|--------------5/7---5--------------------------| 
B|--------------5/7---5--------------------------| 
G|-2-x-x-2------------------2-x-x-2--------------| 
D|-2-x-x-2------------------2-x-x-2-------4b--2--| 
A|-x-x-x-x------------------x-x-x-x--------------| 
E|-x-x-x-x------------------x-x-x-x--------------| 
 
 2nd Time 
 
e|--------------5/7---5--------------------------------| 
B|--------------5/7---5-----------------2-x-2----------| 
G|-2-x-x-2------------------2-x-x-2-----3-x-3----------| 
D|-2-x-x-2------------------2-x-x-2-------------4b--2--| 
A|-x-x-x-x------------------x-x-x-x--------------------| 
E|-x-x-x-x------------------x-x-x-x--------------------| 
 
Funny part 
 
e|---------------------------------------------------| 
B|---------------9--10--9----------------------------| 
G|-------11----------------9--11---------------------| 
D|--9h11-----11--------------------11----------------| 
A|---------------------------------------------------| 
E|---------------------------------------------------| 
 
e|-----------------------------------------------------------| 
B|---------------9--10---12b14--12b14--12h10---12-~-~-~------| 
G|-------11--------------------------------------------------| 
D|--9h11-----11----------------------------------------------| 
A|-----------------------------------------------------------| 
E|-----------------------------------------------------------| 
 
e|---------------------------------------------------------------| 
B|---------------------------------------------------------------| 
G|------11h9--x-x--------x-x-------------------------------------| 
D|-9b11-------x-x--9h7---x-x---9--7-----9-x-9-x-9----------------| 
A|--------------------------------------9-x-9-x-9--9h7--x-x-12h9-| 
E|---------------------------------------------------------------| 
 
  Fast and Mutted Strumming 
 
e|---14-x-x-14-----12-x-x-12---------12/14-~-~--------| 
B|---14-x-x-14-----12-x-x-12--------------------------| 
G|----------------------------------------------------| 
D|----------------------------------------------------| 
A|----------------------------------------------------| 
E|----------------------------------------------------| 
 
-Then Guitar 1 plays Fill 1 2x 
-Chorus (Just Guitar 2) 
-The to End this Song play Chorus 17x (Both Guitars) 
- End with this: 
 
e|-------------------------------------------------------| 
B|-------------------------------------------------------| 
G|-11--11-----7--7----6---7----9-------------------------| 
D|-11--11-----7--7----6---7----9-------------------------| 
A|-9---9------5--5----4---5----7-------------------------| 
E|-x---x------x--x----x---x----x-------------------------| 
 
 

	  

Solicitar el vídeo de "Angel de Amor" - Descargar Angel de Amor mp3

No existe una video leccione para esta canción

solicitar
Aumentar uno tonoAumentar uno tono
Aumentar uno semi-tonoAumentar uno semi-tono
Disminuir uno semi-tonoDisminuir uno semi-tono
Disminuir uno tonoDisminuir uno semi-tono
140

Envie sus comentários.

0 comentários

 
LosAcordes
Buscar
auto avanzar rasgueos aumentar disminuir cambiar color esconder acordes gráficos
losacordes exhibir acordes losacordes youTube video losacordes ocultar tabs losacordes cambiar notación losacordes ir hacia arriba losacordes