Jesús Adrián Romero

Início > Jesús Adri... > acordes

Prefiero a Cristo Tablatura

Jesús Adrián Romero

Dificultad:PrincipiantePrincipiante

por Angel77

tuner correct add songbook print version text version salvar en e-mail
acordesukuleletablaturabajobateríaarmónicaflautacavacopiano Guitar Pro
acordes

Prefiero a Cristo

	  Aki esta el solo del sax de la cancion Prefiero A Cristo 

E---------------------------------------------------- 
A---------------------------------------------------- 
D---------------------------------------------------- 
G--------------8----8-8-8------------8-5------------- 
B--8-8-8-----6------------9-8--8h9p8----------------- 
e--------8-6----------------------------------------- 


E---------------------------------------------------- 
A---------------------------------------------------- 
D---------------------------------------------------- 
G--8-8-8--------------------------------------------- 
B-----------------8---8-8-8-8-8---------------------- 
e--------8-6--6h8---------------12-10--10-12/14-12-10 

Estoy seguro de que esta correcta. Si hay algun error 
favor de decirme. Ya saben al e-mail. 
Dios Les Bendiga 

Un saludo para el grupo Peniel de la Iglesia Galilea en 
Sterling,Va 

	  

No existe una video leccione para esta canción

request
LosAcordes
Buscar
auto avanzar rasgueos aumentar disminuir cambiar color esconder acordes gráficos
losacordes exhibir acordes losacordes youTube video losacordes ocultar tabs losacordes ir hacia arriba losacordes