A B C D E F G H I J K L M N O P Q R S T U V X Y Z 0-9
Iron Maiden

Início > Iron Maide... > acordes

Iron Maiden

The Final Frontier

Dificultad:FácilFácil

por tarikike

tuner corregir añadir para songbook version para impresion version de texto version rtf e-mail
acordestablaturabajobateríaarmónicaflautacavacopiano Guitar Pro
acordes

The Final Frontier

	  Intro / Refrão: 
 
E|---------------------------------------------------------------------------| 
B|-------------------------------------------5-------------------------------| 
G|---7/9----9--9--9---12----7--7--9-9-9------5-------------------------------| 
D|---7/9----9--9--9---12----7--7--9-9-9--7---7-----5--4----------------------| 
A|---5/7----7--7--7---10----5--5--7-7-7--7---7-----3--2----------------------| 
E|---------------------------------------5---5--------------5-3--0-----------| 


Verso: 
 
E|---------------------------------------------------------------------------| 
B|-----------------------------------------------------------5---------------| 
G|--7/9--9-----------5/7--7---------------5/7--7-------------5---------------| 
D|--7/9--9-----------5/7--7---------------5/7--7--------5/7--7---------------| 
A|--5/7--7-----------3/5--5---------------3/5--5--------5/7--7---------------| 
E|------------------------------------------------------3/5--5---------------| 


Ponte: 
 
E|---------------------------------------------------------------------------| 
B|---------------------------------------5-----------------------------------| 
G|--7/9--9----------5/7--7---------------5-----------------------------------| 
D|--7/9--9----------5/7--7--------- 5/7--7-----------5--4--------------------| 
A|--5/7--7----------3/5--5----------5/7--7-----------3--2--------------------| 
E|----------------------------------3/5--5-------------------5-3--0----------| 


(Verso) 

(Ponte) 

Solo: 
 
E|------------12h15p12-------12------------------12--------------------------| 
B|---15b-15b~-----------15--------15p12-------15----15p12-----------15----15~| 
G|---------------------------------------14---------------14p12--------------| 
D|---------------------------------------------------------------------------| 
A|---------------------------------------------------------------------------| 
E|---------------------------------------------------------------------------| 


 
E|-------15--12~----12-------------------------------------------------------| 
B|--15b----------------15p12--------15p12------------------------------------| 
G|-----------------------------14-----------14p12----------14p12-------------| 
D|--------------------------------------------------14p12----------14p12-----| 
A|---------------------------------------------------------------------------| 
E|---------------------------------------------------------------------------| 


E|---------------------------------------------------------------------------| 
B|---------------------------------------------------------------------------| 
G|---------------------------------------------------------------------------| 
D|---------------------------------------------------------------------------| 
A|--14-14-14--12--10----12~------p10-----------------------------------------| 
E|------------------------------------12---12~-------------------------------| 
 
PM  ------------                    - 
E|---------------------------------------------------------------------------| 
B|---15p12--------12p15h12--------12h15p12h15p12---------12h15p12h15p12------| 
G|-----------14b--------------14b--------------------14-------------------14-| 
D|---------------------------------------------------------------------------| 
A|---------------------------------------------------------------------------| 
E|---------------------------------------------------------------------------| 


 
E|---------------------------------------------------------------------------| 
B|--12p15h12--------12h15p12--------15b------15br----15b---15~---------------| 
G|--------------14-------------14--------------------------------------------| 
D|---------------------------------------------------------------------------| 
A|---------------------------------------------------------------------------| 
E|---------------------------------------------------------------------------| 


 
E|------------------------------------------------------------------0--------| 
B|---12h15p12------------12h15p12-----------12h15p12p15p12---------12/-------| 
G|----------------14b-----------------14b------------------------------------| 
D|---------------------------------------------------------------------------| 
A|---------------------------------------------------------------------------| 
E|---------------------------------------------------------------------------| 


 
E|---15p12--15p12--15p12-15p12----17p12--17p12--17p12--17p12-----------------| 
B|---------------------------------------------------------------------------| 
G|---------------------------------------------------------------------------| 
D|---------------------------------------------------------------------------| 
A|---------------------------------------------------------------------------| 
E|---------------------------------------------------------------------------| 


 
E|---15p12--15p12--15p12-15p12----17p12--17p12--17p12--17p12-----------------| 
B|---------------------------------------------------------------------------| 
G|---------------------------------------------------------------------------| 
D|---------------------------------------------------------------------------| 
A|---------------------------------------------------------------------------| 
E|---------------------------------------------------------------------------| 


 
E|---15p12--15p12--15p12-15p12----17p12--17p12--17p12--17p12-----15p12~\-----| 
B|---------------------------------------------------------------------------| 
G|---------------------------------------------------------------------------| 
D|---------------------------------------------------------------------------| 
A|---------------------------------------------------------------------------| 
E|---------------------------------------------------------------------------| 


 
E|---12h15--17-------------12h15p12----------------17b+--17br---17p15h17-----| 
B|--------------15-----15---------------15---15~-----------------------------| 
G|---------------------------------------------------------------------------| 
D|---------------------------------------------------------------------------| 
A|---------------------------------------------------------------------------| 
E|---------------------------------------------------------------------------| 


 
E|--17b-----p15--------------------------------------------------------------| 
B|---------------17--17~-----------------------------------------------------| 
G|--------------------------------------------------------------------12-----| 
D|---------------------------------------------------------------------------| 
A|---------------------------------------------------------------------------| 
E|---------------------------------------------------------------------------| 


 
E|---------------------------------------------------------------------------| 
B|---15---------------12-----------------------------------------------------| 
G|---------12-------------------------------2-----------2/4------------------| 
D|----------------14------14/12----12~\-------------------------4~-----------| 
A|-----------------------------------------------0---------------------------| 
E|---------------------------------------------------------------------------| 


 
E|---------12-------------------12-------------------------------------------| 
B|--15b--------15--12----15b---------15--12---15b---15b----------------------| 
G|--------------------------------------------------------------------12-----| 
D|---------------------------------------------------------------------------| 
A|---------------------------------------------------------------------------| 
E|---------------------------------------------------------------------------| 


 
E|---------------------------------------------------------------------------| 
B|---15--------------12------------10------------8--8--8~\-------------------| 
G|--------12-----------------------------------------------------------------| 
D|-------------14---------14/12----------12/10-------------------------------| 
A|---------------------------------------------------------------------------| 
E|---------------------------------------------------------------------------| 


 
E|---------------------------------------------------------14b 14b---14--12~-| 
B|----/8--7-7-----/12---10------13---12h13p12p10--12-13----------------------| 
G|---------------------------------------------------------------------------| 
D|---------------------------------------------------------------------------| 
A|---------------------------------------------------------------------------| 
E|---------------------------------------------------------------------------| 


 
E|---15b---15---14h15p14p12---14p12--14--------12h15p12-14p12----------------| 
B|-------------------------------------15b---------------------15b-------12--| 
G|---------------------------------------------------------------------------| 
D|---------------------------------------------------------------------------| 
A|---------------------------------------------------------------------------| 
E|---------------------------------------------------------------------------| 


 
E|---------------------------------------------------------------------------| 
B|--15p12----15p12----10h11h12---10~/8~-------5/8--8-------------------------| 
G|---------------------------------------------------------------------------| 
D|---------------------------------------------------------------------------| 
A|---------------------------------------------------------------------------| 
E|---------------------------------------------------------------------------| 


 
E|---19--17--15--14----17--15--14--------15--14--12----------17-----15h17p15-| 
B|---------------------------------17-----------------15---------------------| 
G|---------------------------------------------------------------------------| 
D|---------------------------------------------------------------------------| 
A|---------------------------------------------------------------------------| 
E|---------------------------------------------------------------------------| 


 
E|---14--15p14h15p14-------------12h15p12h14p12------12----------------------| 
B|--------------------15----15b------------------15b-----15p12-----12--------| 
G|-------------------------------------------------------------14b------14p12| 
D|---------------------------------------------------------------------------| 
A|---------------------------------------------------------------------------| 
E|---------------------------------------------------------------------------| 


 
E|---------------------------17--15h17p15p14---15----17b~--------------------| 
B|---------------------------------------------------------------------------| 
G|-------12------------------------------------------------------------------| 
D|---14------14p12--14p12----------------------------------------------------| 
A|---------------------------------------------------------------------------| 
E|---------------------------------------------------------------------------| 
	  

Solicitar el vídeo de "The Final Frontier" - Descargar The Final Frontier mp3

No existe una video leccione para esta canción

solicitar
140

Envie sus comentários.

0 comentários

 
LosAcordes
Buscar
auto avanzar rasgueos aumentar disminuir cambiar color esconder acordes gráficos
losacordes exhibir acordes losacordes youTube video losacordes ocultar tabs losacordes cambiar notación losacordes ir hacia arriba losacordes