Iron Maiden

Início > Iron Maide... > acordes

The Evil That Men Do(ver.2) Tablatura

Iron Maiden

Dificultad:IntermedioIntermedio

por dobrinha

tuner correct add songbook print version text version salvar en e-mail
acordesukuleletablaturabajobateríaarmónicaflautacavacopiano Guitar Pro
acordes

The Evil That Men Do(ver.2)

	   
 
e---------------------------------------------------------------- 
B---------------------------------------------------------------- 
G---------------------------------------------------------------- 
D--------5-----9---7--5--7--9-------5-----9--7--5--7--9---------- 
A---5/7-----7------------------5/7-----7------------------7------ 
E---------------------------------------------------------------- 
 
e-----------------------------------------5--3----------------------------------------------------------------- 
B---------------------------------3-5--3----------------------------------------------------------------------- 
G-------------------------------------------------------------------------------------------------------------- 
D------5-----9--7--5--7--9--7--------------------------5------9--7--5--7--9-9---------5------9--7--5--7-9------ 
A-5/7----7----------------------------------------5/7------7---------------------5/7-----7-----------------5--- 
E-------------------------------------------------------------------------------------------------------------- 
 
e-------------------------------------------5-----------------5-----5----------------------------------------------5---------5-----5--------- 
B-------------------------------------------8--------4VEZES---6-----5----------------------------------------------8--4VEZEZ-6-----5--------- 
G-------------------------------------------5-----------------5-----5----------------------------------------------5---------5-----5--------- 
D-9--9--7--12--9--9--7--12-----------5------5-----------------5-----5---------99999999999999999-----555555555------5---------5-----5--------- 
A-7--7--5--10--7--7--5--10-----------3----------------------------------------77777777777777777-----333333333-------------------------------- 
E-------------------------------------------------------------------------------------------------------------------------------------------- 
 
e------------------------------------------------5-------------5----5------------------------------------------------------------------------- 
B------------------------------------------------8-----4VEZES--6----5------------------------------------------------------------------------- 
G------------------------------------------------5-------------5----5-----------------------------------------------77777777777--------------- 
D---999999999999999999999---555555555555---------5-------------5----5--------999999999999---5555555555--------------55555555555--------------- 
A---777777777777777777777---333333333333-------------------------------------777777777777---3333333333--5555555555---------------------------- 
E-------------------------------------------------------------------------------------------------------3333333333---------------------------- 
 
e--------------------------------------------------------------------------------------------------------------------------------------------- 
B--------------------------------------------------------------------------------------------------------------------------------------------- 
G---------------------------------------------------------------------------------------------5-4--------------------------------------------- 
D-9999999999999----5555555555555------------------7777777777777------55555555555555555------------7-5-7--9------------------------------------ 
A-7777777777777----3333333333333---555555555555---5555555555555------33333333333333333-----------------------3-------------------------------- 
E----------------------------------333333333333----------------------------------------------------------------------------------------------- 
 
 
AGORA E SO TIRAR O RESTO...........FOLOOW ABRASOOSSSSSS 

	  

No existe una video leccione para esta canción

request
LosAcordes
Buscar
auto avanzar rasgueos aumentar disminuir cambiar color esconder acordes gráficos
losacordes exhibir acordes losacordes youTube video losacordes ocultar tabs losacordes ir hacia arriba losacordes