Intoxicados

Início > Intoxicado... > acordes

Departamento Deshabitado Tablatura

Intoxicados

Dificultad:Ningún gradoNingún grado

por Amaah

tuner correct add songbook print version text version salvar en e-mail
acordesukuleletablaturabajobateríaarmónicaflautacavacopiano Guitar Pro
acordes

Departamento Deshabitado

	  RIFF 1: 

e|---------------------- 
B|---------------------- 
G|-2^0---0-2-0/0-2/2---- 
D|-----2---------------- 
A|---------------------- 
E|---------------------- 

RIFF 2: 

e|--------------------------------------- 
B|---------13-------13-------13-------13- 
G|------12-------12-------12-------12---- 
D|---11-------11-------11-------11------- 
A|-0------------------------------------- 
E|--------------------------------------- 


RIFF 1 
Nena no tengo gas, no tengo luz. 
RIFF 2 
Me fui cuidaste mi casa 
Cuando llegue mira lo que encontré 
RIFF 1 
Es que necesito verte. 
RIFF 2 
Sin luz, nos tanteamos 
Sin gas, no cocinamo 
	  

No existe una video leccione para esta canción

request
LosAcordes
Buscar
auto avanzar rasgueos aumentar disminuir cambiar color esconder acordes gráficos
losacordes exhibir acordes losacordes youTube video losacordes ocultar tabs losacordes ir hacia arriba losacordes