A B C D E F G H I J K L M N O P Q R S T U V X Y Z 0-9
Green Day

Início > Green Day > acordes

Green Day

The Simpsons Theme

Dificultad:ExpertoExperto

por europeu

tuner corregir añadir para songbook version para impresion version de texto version rtf e-mail
acordestablaturabajobateríaarmónicaflautacavacopiano Guitar Pro
acordes

The Simpsons Theme

	   C5                            x2 B5                          x2 
E |-----------------------------| |----------------------------| | 
B |---5-7-10-8-5--------------o-| |---4-6-9-7-4--------------o-| | 
G |-5------------5--------------| |-4-----------4--------------| | 
D |----------------7-4-4-4-5~---| |----------------6-3-3-3-4~--| | 
A |---------------------------o-| |--------------------------o-| | 
E |-----------------------------| |----------------------------| | 

    E5                            x2 C5                          x2 
E |------------------------------| |----------------------------| | 
B |---9-11-14-12-9-------------o-| |---5-7-10-8-5-------------o-| | 
G |-9--------------9-------------| |-5------------5-------------| | 
D |------------------11-8-8-8-9~-| |----------------7-4-4-4-5~--| | 
A |----------------------------o-| |--------------------------o-| | 
E |------------------------------| |----------------------------| | 

Guitar 1(0:53)  x15 
E |-------------| 
B |-11-11-xx--o-| 
G |-------------| 
D |-------------| 
A |-----------o-| 
E |-------------| 

Guitar 2 
  (0:57)         (1:00) 
E |-------------|--------------------11---------------| 
B |-------------|---8h11—11h14—11h14------------------| 
G |-8~~~--------|-8-----------------------------------| 
D |-------------|-------------------------------------| 
A |-------------|-------------------------------------| 
E |-------------|-------------------------------------| 

    E5                            x2 
E |------------------------------| 
B |---9-11-14-12-9-------------o-| 
G |-9--------------9-------------| 
D |------------------11-8-8-8-9~-| 
A |----------------------------o-| 
E |------------------------------| 

   Tun tun tun tun-tun tun... 
E |-------------------------------------------------------------------| 
B |---5-7-10-8-5------------------------------------------------------| 
G |-5------------5---------------------5-5-5-5------------------------| 
D |----------------7-4-4-4-5-4-4-4-5-5--------------------------------| 
A |-------------------------------------------------------------------| 
E |-------------------------------------------------------------------| 

	  

Solicitar el vídeo de "The Simpsons Theme" - Descargar The Simpsons Theme mp3

No existe una video leccione para esta canción

solicitar
Aumentar uno tonoAumentar uno tono
Aumentar uno semi-tonoAumentar uno semi-tono
Disminuir uno semi-tonoDisminuir uno semi-tono
Disminuir uno tonoDisminuir uno semi-tono
140

Envie sus comentários.

0 comentários

 
LosAcordes
Buscar
auto avanzar rasgueos aumentar disminuir cambiar color esconder acordes gráficos
losacordes exhibir acordes losacordes youTube video losacordes ocultar tabs losacordes cambiar notación losacordes ir hacia arriba losacordes