Don Tetto

Início > Don Tetto > acordes

Fallido Intento Tablatura

Don Tetto

Dificultad:ExpertoExperto

por renejunior

tuner correct add songbook print version text version salvar en e-mail
acordesukuleletablaturabajobateríaarmónicaflautacavacopiano Guitar Pro
acordes

Fallido Intento

	  por blink1-8-2  
juan de al cruz es pero que les guste 
guitarra principal. 

intro 

e------------------------| 
b------------------------| 
g------7-7-12-12-9-7-7s9-|  (X2) 
d--9-9-7-7-12-12-9-7-7s9-| 
a--9-9-5-5-10-10-7-5-5s7-| 
E--7-7-------------------| 


estrofa: 


                            |-----PM-----------------------| 
e----------------------------------------------------------| 
b----------------------------------------------------------| 
g----------------------------------------------------------| 
d----9-9h7-----9-9-9-9h7----5-5-5-5-5-5-5-5--9-9-9-9h7-----| 
a----------9-------------9--5-5-5-5-5-5-5-5------------9---| 
E--7---------7--------------3-3-3-3-3-3-3-3----------------| 

e---------------------------------------| 
B---------------------------------------| 
G--x7x7x7x7x7x7x7x7---------------------|  (X2) 
D--x7x7x7x7x7x7x7x7-xx7xx7x--9-9-9-9h7--| 
A--x5x5x5x5x5x5x5x5-xx7xx7x-----------9-| 
E-------------------xx5xx5x-------------| 

e-----------------------| 
b-----------------------| 
g-----------------------| 
d--5-5----7-7-7-7-7-7-7-| 
a--5---5--7-7-7-7-7-7-7-| 
E--3------5-5-5-5-5-5-5-| 


coro (x2): 

e-------------------------------------| 
b-------------------------------------| 
g--7---7---9---9---11---11---9---9----| 
d----7---7---7---7----7----7---7---7--|  (x2) 
a-------------------------------------| 
E-------------------------------------| 

e----------------------------------------------| 
B----------------------------------------------| 
G------------7---7---9---9---11---11---9---9---| 
D--5-5--5-5----7---7---7---7----7----7---7---7-| 
A--5-5--5-5------------------------------------| 
E--3-3--3-3------------------------------------| 


puente: 

e------------------------| 
b------------------------| 
g------7-7-12-12-9-7-7s9-| 
d--9-9-7-7-12-12-9-7-7s9-| 
a--9-9-5-5-10-10-7-5-5s7-| 
E--7-7-------------------| 


estrofa: 

coro: 

solo: 

e--------------------------------------------| 
B--------------------------------------------| 
G--9v-9h7-x----------------------------------| 
D-----------9v-7-9-7-9-7---------------------| 
A------------------------9-7-9-7-9-7-9-7-----| 
E----------------------------------------10v-| 

e----------------------------------------------7----| 
B--------------------------------7---7-10-7-10---10-| 
G--------------------7---7-9-7-9---9----------------| 
D--------7---7-9-7-9---9----------------------------| 
A--9-7-9---9----------------------------------------| 
E---------------------------------------------------| 

e----------------------| 
B--7-s10v-10-12--------| 
G---------------9v-7-9-| 
D----------------------| 
A----------------------| 
E----------------------| 

e-10-7----      -12-10----| 
B------10-      -------12-| 
G--------- (x8) ----------| (x8) 
D---------      ----------| 
A---------      ----------| 
E---------      ----------| 

e------------------------------------------------| 
B------------------------------------------------| 
G---s7v-6----s7v-6-7s9s7-6-7v-6------------------| (x3) 
D---------7v--------------------7v-7-7s5-4-5-4-2-| 
A------------------------------------------------| 
E------------------------------------------------| 
	  

No existe una video leccione para esta canción

request
LosAcordes
Buscar
auto avanzar rasgueos aumentar disminuir cambiar color esconder acordes gráficos
losacordes exhibir acordes losacordes youTube video losacordes ocultar tabs losacordes ir hacia arriba losacordes