Carlos Rivera

Início > Carlos Riv... > acordes

Recuérdame Tablatura

Carlos Rivera

Dificultad:Ningún gradoNingún grado

por adalgomes

tuner correct add songbook print version text version salvar en e-mail
acordesukuleletablaturabajobateríaarmónicaflautacavacopiano Guitar Pro
acordes

Recuérdame

	  
Main Riff 
E|-----0--------------------------------0--0--------| 
B|--3-----1-----------------1--1--3--3--------1-----| 
G|-----------0-----0-----------------------------0--| 
D|--------------------3--3--------------------------| 
A|--------------------------------------------------| 
E|--------------------------------------------------| 

E|--0--1--0--0-----------------5--5--3--3--0--0-----3--1--1--0--0--| 
B|--------------3--3-----1--1--------------------1-----------------| 
G|-----------------------------------------------------------------| 
D|-----------------------------------------------------------------| 
A|-----------------------------------------------------------------| 
E|-----------------------------------------------------------------| 

E|--------3--3--1--1--0--0--------------------| 
B|--------------------------1--4--3--3--1--3--| 
G|--2--2--------------------------------------| 
D|--------------------------------------------| 
A|--------------------------------------------| 
E|--------------------------------------------| 

E|-----0--------------------------------0--0--1--0--| 
B|--3-----1-----------------1--1--3--3--------------| 
G|-----------0-----0--------------------------------| 
D|--------------------3--3--------------------------| 
A|--------------------------------------------------| 
E|--------------------------------------------------| 

E|--0--0--1--1--0--0--1--3-----------8--8--7--7--5--5--3--3--0--0--------| 
B|-----------------------------1--1--------------------------------3--1--| 
G|-----------------------------------------------------------------------| 
D|-----------------------------------------------------------------------| 
A|-----------------------------------------------------------------------| 
E|-----------------------------------------------------------------------| 

E|--------------4--4--8--8h10-----10--8--7--8--| 
B|--1--1--4--4---------------------------------| 
G|---------------------------------------------| 
D|---------------------------------------------| 
A|---------------------------------------------| 
E|---------------------------------------------| 

************************************ 
| h   Hammer-on 
************************************ 
	  

No existe una video leccione para esta canción

request
LosAcordes
Buscar
auto avanzar rasgueos aumentar disminuir cambiar color esconder acordes gráficos
losacordes exhibir acordes losacordes youTube video losacordes ocultar tabs losacordes ir hacia arriba losacordes