A B C D E F G H I J K L M N O P Q R S T U V X Y Z 0-9
Camila

Início > Camila > acordes

Camila

Todo Cambio

Dificultad:PrincipiantePrincipiante

por taniaatm

tuner corregir añadir para songbook version para impresion version de texto version rtf e-mail
acordestablaturabajobateríaarmónicaflautacavacopiano Guitar Pro
acordes

Todo Cambio

Áño: 2006 - Álbum: Todo Cambió

	  Intro: 
e------------------------------------------------  
B------------------------6-8b10-6~--8b10-6---8~--  
D------5-5h7---------5h7-------------------7-----  
G--5/7-------6/7~--------------------------------  
A------------------------------------------------  
E------------------------------------------------  

e----------------8/10-8-------------------------- 
B-----6-8b10-6~---------7/9-7-5----5-5h7--------- 
D-5-7---------------------------6~--------5/4~--- 
G------------------------------------------------ 
A------------------------------------------------ 
E------------------------------------------------ 

O intro também pode ser jogado como este 

Intro: 
e----------------------------------------- 
B-----------------------------------------  
G----------------------------10-12b14-10~-  
D-------10-10h12-------10h12--------------  
A-10/12----------11/12--------------------  
E-----------------------------------------  

e---------------------------------  
B---------------------------------  
G-12b14-10----12~-------12b14-10~-  
D----------12-----10-12-----------  
A---------------------------------  
E---------------------------------  

e---------------------------------------- 
B-13/15-13------------------------------- 
G----------12/14-12-10----10-10h12------- 
D----------------------12~---------11/10~ 
A---------------------------------------- 
E---------------------------------------- 

ocultar esta pestañaesconder
pestaña
F F7 A# A#m Todo cambió, cuando te ví F F7 A# A#m de blanco y negro a color, me convertí Gm Am y fue tán fácil, quererte tanto, A# Am algo que no imaginaba, A# C C7 A# fue entregarte mi amor con una mirada.
pestaña
e-------------- B---1/3-1------ G-2-------2-3-- D-------------- A-------------- E--------------
ocultar esta pestañaesconder
pestaña
F F7 A# A#m Todo tembló, dentro de mi F F7 A# A#m el universo escribió, que fueras para mi Gm Am y fué tan fácil quererte tanto A# Am algo que no imaginaba A#m Am fue perderme ( en tu amor ) A# simplemente ( pasó ) C y todo tuyo ya soy. CORO A# C Antes que pasé más tiempo contigo amor F F7 tengo que decir que eres el amor de mi vida, A# C antes que te ame más, escucha por favor F A# dejame decir que todo te dí. Gm Y no hay (como explicar) Am pero menos ( dudar ) A# C simplemente así lo sentí A# cuando te ví.
pestaña
e-------------- B---1/3-1------ G-2-------2-3-- D-------------- A-------------- E--------------
ocultar esta pestañaesconder
pestaña
F F7 A# A#m Me sorprendió todo de tí F F7 A# A#m de blanco y negro al color, me converti Gm Am sé que no es fácil, decir te amo A# Am yo tampoco lo esperaba A# Am pero así es el amor A# C7 simplemente paso y todo tuyo ya soy CORO A# C Antes que pasé más tiempo contigo amor F F7 tengo que decir que eres el amor de mi vida, A# C antes que te ame más, escucha por favor F A# dejame decir que todo te dí. Gm Y no hay (como explicar) Am pero menos ( dudar ) A# C simplemente así lo sentí A# cuando te ví.
pestaña
e-------------- B---1/3-1------ G-2-------2-3-- D-------------- A-------------- E-------------- F ...todo cambio, cuando te ví

Solicitar el vídeo de "Todo Cambio" - Descargar Todo Cambio mp3

todo-cambio-by-camila Tocar

Existe una video leccione para esta canción

vea ahora

Aumentar uno tonoAumentar uno tono
Aumentar uno semi-tonoAumentar uno semi-tono
Disminuir uno semi-tonoDisminuir uno semi-tono
Disminuir uno tonoDisminuir uno semi-tono
140

Envie sus comentários.

1 comentários

pedro_cpedro_c
hace 2436 años atrás
Muy buena la cancion :D
 
LosAcordes
Buscar
auto avanzar rasgueos aumentar disminuir cambiar color esconder acordes gráficos
losacordes exhibir acordes losacordes youTube video losacordes ocultar tabs losacordes cambiar notación losacordes ir hacia arriba losacordes