Locomondo

Início > Locomondo > acordes

Locomondo Liubi, Liubi I Love You Ukulele tab

Locomondo

Dificultad:PrincipiantePrincipiante

Hayaser

tuner correct add songbook print version text version salvar en e-mail
acordesukuleletablaturabajobateríaarmónicaflautacavacopiano Guitar Pro
acordes

Locomondo Liubi, Liubi I Love You

	                    Locomondo Liubi, Liubi I Love You 
                    Tabbed by Hayaser.net(Rouben) 

|--------------------------------------------------------| 
|--------------------------------------------------------| 
|--------------------------------------------------------| 
|--10/11---11/13---14--14--14--14/18---14---11-11--------| 
|--------------------------------------------------------| 
|--------------------------------------------------------| 

|--------------------------------------------------------| 
|--------------------------------------------------------| 
|-----------------------13-14-15--14-13-11/13------------| 
|--13/14---14/16-----------------------------------------| 
|--------------------------------------------------------| 
|--------------------------------------------------------| 

|--------------------------------------------------------| 
|--------------------------------------------------------| 
|--9--11/13--13--13---11---9/11--11--11------------------| 
|--------------------------------------------------------| 
|--------------------------------------------------------| 
|--------------------------------------------------------| 
|--------------------------------------------------------| 

|--------------------------------------------------------| 
|--8-9/11--11--11--9--8----9/8/6-------------------------| 
|--------------------------------------------------------| 
|--------------------------------------------------------| 
|--------------------------------------------------------| 

|--------------------------------------------------------| 
|--9--12--9--7--5--7/9-----7-----------------------------| 
|-----------------------------------13--13-13-11--9---11-| 
|--------------------------------------------------------| 
|--------------------------------------------------------| 
|--------------------------------------------------------|

http://www.youtube.com/watch?v=FxrksuZgyBo
 
	  
E-Chords has the most powerful ukulele chords dictionary on the internet. You can enter any chord and even choose the pitch of each string.

No existe una video leccione para esta canción

request
LosAcordes
Buscar
auto avanzar rasgueos aumentar disminuir cambiar color
losacordes exhibir acordes losacordes youTube video losacordes ocultar tabs losacordes ir hacia arriba losacordes