Zezé di Camargo e Luciano

Início > Zezé di Ca... > acordes

Por toda vida Tablatura

Zezé di Camargo e Luciano

Dificultad:Ningún gradoNingún grado

Gabriel Afram

tuner correct add songbook print version text version salvar en e-mail
acordesukuleletablaturabajobateríaarmónicaflautacavacopiano Guitar Pro
acordes

Por toda vida

	    F#m       A  
e|--------------------------------------------------  
B|--------------------------------------------------  
G|--------------------------------------------------  
D|--------------------------------------------------  
A|-------2------------------------------------------  
E|-0-2^4---4-2-0---2-----2-4-5----------------------   
               E  
e|-------8------------------------------------------  
B|-9-11---11-9-8----------8-------------------------  
G|-------------------9-11---11-9-9------------------  
D|--------------------------------------------------  
A|--------------------------------------------------  
E|-------------------------------------------------- 

	  

No existe una video leccione para esta canción

request
Aumentar uno tonoAumentar uno tono
Aumentar uno semi-tonoAumentar uno semi-tono
Disminuir uno semi-tonoDisminuir uno semi-tono
Disminuir uno tonoDisminuir uno semi-tono
LosAcordes
Buscar
auto avanzar rasgueos aumentar disminuir cambiar color esconder acordes gráficos
losacordes exhibir acordes losacordes youTube video losacordes ocultar tabs losacordes ir hacia arriba losacordes