Zeus

Início > Zeus > acordes

Are You Gonna Waste My Time Tablatura

Zeus

Dificultad:Ningún gradoNingún grado

carlluz

tuner correct add songbook print version text version salvar en e-mail
acordesukuleletablaturabajobateríaarmónicaflautacavacopiano Guitar Pro
acordes

Are You Gonna Waste My Time

	  Zeus - Are you gonna waste my time 
Tabbed by David Cowan, 04/16/2012 

This is not the real version. 

its a stepping stone until its tabbed for real, theres too much going on to keep 
track of in their music vids. 

So dont give it 1 star because its not correct, this is the only tab thats been 
made for this song as of that date above. 

In no particular timing, just basic note guidelines to let you make a version you can play. 


Intro (1)                     Verse Start  (2)  verse continued (3A)    (3E) 

-0-0-0------------------------0---0-0-0-----------0---0---0---0--| 
-2-3-2------------------------0---2-3-3-----------2---2---0---0--| 
-2-2-2--repeat several bars---1---2-2-2---repeat--2---2---1---1--|repeat for remainder of verse 
-2-2-2------------------------2---2-2-2-----------2---2---2---2--| 
-0-0-0------------------------2---0-0-0-----------0---0---2---2--| 
------------------------------0---------------------------0---0--| 

Pre chorus  (4) 

----------------| 
----------------| 
---4-6-7-8-9----| 
-7-4-6-7-8-9----|   iffy, but close enough 
-7-2-4-5-6-7----| 
-5--------------| 


Chorus  (5) 

-0--2-2--0-0-0-0-0-0-------------| 
-0--3-3--2-3-3-2-3-2-------------| 
-1--4-4--2-2-2-2-2-2-------------| 
-2--4-4--2-2-2-2-2-2------2------| 
-2--2-2--0-0-0-0-0-0--0-4---4-0--| 
-0-------------------------------| 

Outro  (6) 

-0-0--2-2--0-0-0-0-0-0---| 
-0-0--3-3--2-3-3-2-3-2---| 
-1-1--4-4--2-2-2-2-2-2---| 
-2-2--4-4--2-2-2-2-2-2---| 
-2-2--2-2--0-0-0-0-0-0---| 
-0-0---------------------| 

Lyrics & Order (approx.) 


Intro (1) 

(2) 
Sittin in your garden grove, 
Watching the flowers grow, 
(2) 
Tell you whats on my head, 
You didnt hear a thing I said, 

(3A) 
And Im breaking down from it all, 
See your point, but not at all. 
(3E) 
Youll still be rockin til the earliest sun rise, 
Youll wait a minute, til the glorious moonlight, 
(3A) 
Oh no, can you feel it in your spine? 
The force of gravity and weight on your mind, 
(3E) 
And then I got sick from the cigarette, 
Even more when I think of it. 

(4) 
So lets not make some kind of scene, 

(5) 
Cause I dont wanna waste my time, 
Always trying to be right, 
(5) 
Dont really know what to do, whats going on with you? 
(5) 
Whats running through your head, whats that last thing you said? 
(5) 
You said, are you gonna waste my time? Are you gonna be mine? 

(2) 
Easy come, easy go, l so put it down and let it go, 
(2)                  (muted drums) 
You tell me something I dont want to know, 
(2) 
And I can see you through my ruby reds, 
(2) 

(5) (5) 
*Break* 

(5) 
You said, are you gonna waste my time? Are you gonna be mine? 
(5) 
You said, are you gonna waste my time? Are you gonna be mine? 
(5) 
You said, are you gonna waste my time? Are you gonna be mine? 
(5) 
You said, are you gonna waste my time? Are you gonna be mine? 

(6) (6) (6) (6) 
Outro 
	  

No existe una video leccione para esta canción

request
LosAcordes
Buscar
auto avanzar rasgueos aumentar disminuir cambiar color esconder acordes gráficos
losacordes exhibir acordes losacordes youTube video losacordes ocultar tabs losacordes ir hacia arriba losacordes