Yodelice

Início > Yodelice > acordes

Time Tablatura

Yodelice

Dificultad:Ningún gradoNingún grado

jessgomes

tuner correct add songbook print version text version salvar en e-mail
acordesukuleletablaturabajobateríaarmónicaflautacavacopiano Guitar Pro
acordes

Time

	  

Intro: Guitar with Octaver -1 / bass 1: 
e|---------------------------------------------------------------------------| 
B|---------------------------------------------------------------------------| 
G|---------------------------------------------------------------------------| 
D|---6---6-3--3-3-3-------6---6/8--------------------------------------------|    X 2 
A|------------------3-3------------6-6-6--8----------------------------------| 
E|---------------------------------------------------------------------------| 



verse 1 :Guitar with Octaver -1 / bass 1: 
e|---------------------------------------------------------------------------| 
B|---------------------------------------------------------------------------| 
G|---------------------------------------------------------------------------| 
D|---6---6-3--3-3-3-------6---6/8--------------------------------------------|    X 2 
A|------------------3-3------------6-6-6--8----------------------------------| 
E|---------------------------------------------------------------------------| 

Beat Start 

  Guitar with Octaver -1 / bass 1: 
e|---------------------------------------------------------------------------| 
B|---------------------------------------------------------------------------| 
G|---------------------------------------------------------------------------| 
D|---6---6-3--3-3-3-------6---6/8--------------------------------------------|    X 2 
A|------------------3-3------------6-6-6--8----------------------------------| 
E|---------------------------------------------------------------------------| 

Beat become louder , and groovie  

    Guitar with Octaver -1 / bass 1:  
e|---------------------------------------------------------------------------| 
B|---------------------------------------------------------------------------| 
G|---------------------------------------------------------------------------| 
D|---6---6-3--3-3-3-------6---6/8--------------------------------------------|    X 2 
A|------------------3-3------------6-6-6--8----------------------------------| 
E|---------------------------------------------------------------------------| 
    Guitar 2 
e|---------------------------------------------------------------------------| 
B|---6~~~~~~~~~~~~~~~~~~~~~~~~~~~~~~~~~~~~~~~~~~~~~~~~~~~~~~~~~~~~~~~~~~~~~~~  
G|---------------------------------------------------------------------------|  X2 
D|---------------------------------------------------------------------------| 
A|---------------------------------------------------------------------------| 
E|---------------------------------------------------------------------------| 
verse 2 :  
e|---------------------------------------------------------------------------| 
B|---------------------------------------------------------------------------| 
G|---------------------------------------------------------------------------| 
D|---6---6-3--3-3-3-------6---6/8--------------------------------------------|    X 2 
A|------------------3-3------------6-6-6--8----------------------------------| 
E|---------------------------------------------------------------------------| 

Beat Start 

  Guitar with Octaver -1 / bass 1: 
e|---------------------------------------------------------------------------| 
B|---------------------------------------------------------------------------| 
G|---------------------------------------------------------------------------| 
D|---6---6-3--3-3-3-------6---6/8--------------------------------------------|    X 2 
A|------------------3-3------------6-6-6--8----------------------------------| 
E|---------------------------------------------------------------------------| 

Beat become louder , and groovie  

    Guitar with Octaver -1 / bass 1:  
e|---------------------------------------------------------------------------| 
B|---------------------------------------------------------------------------| 
G|---------------------------------------------------------------------------| 
D|---6---6-3--3-3-3-------6---6/8--------------------------------------------|    X 2 
A|------------------3-3------------6-6-6--8----------------------------------| 
E|---------------------------------------------------------------------------| 
    Guitar 2 
e|---------------------------------------------------------------------------| 
B|---6~~~~~~~~~~~~~~~~~~~~~~~~~~~~~~~~~~~~~~~~~~~~~~~~~~~~~~~~~~~~~~~~~~~~~~~  
G|---------------------------------------------------------------------------|  X2 
D|---------------------------------------------------------------------------| 
A|---------------------------------------------------------------------------| 
E|---------------------------------------------------------------------------| 

Bridge: 
       Guitar with Octaver -1 / bass 1:  
e|---------------------------------------------------------------------------| 
B|---------------------------------------------------------------------------| 
G|---------------------------------------------------------------------------| 
D|----6-6-6-6-6-6-6-6--------------------------------------------------------|X 4 
A|--------------------8-8-8-8-8-8-8-8----------------------------------------| 
E|---------------------------------------------------------------------------| 
   Guitar 2 
e|----4~---------------------------------------------------------------------| 
B|----4~---------------------------------------------------------------------| 
G|----5~-----------------10~-------------------------------------------------|X4 
D|----6~-----------------10~-------------------------------------------------| 
A|----6~-----------------8~--------------------------------------------------| 
E|----4~---------------------------------------------------------------------| 


   Guitar with Octaver -1 / bass 1:  
e|---------------------------------------------------------------------------| 
B|---------------------------------------------------------------------------| 
G|---------------------------------------------------------------------------| 
D|---------------------------------------------------------------------------| X12 
A|----3-3-3-3-3-3-3-3-3------------------------------------------------------| 
E|---------------------------------------------------------------------------| 


   No Guitar 2  
e|---------------------------------------------------------------------------| 
B|---------------------------------------------------------------------------| 
G|---------------------------------------------------------------------------| 
D|---------------------------------------------------------------------------| X 12 
A|---------------------------------------------------------------------------| 
E|---------------------------------------------------------------------------| 

Break:  

Guitar 2 Solo: 
e|---------------------------------------------------------------------------| 
B|----8-8-5-5--5-5-5------8-8-10-10------------------------------------------| 
G|-------------------5-5------------8-8-8-10---------------------------------| 
D|---------------------------------------------------------------------------| X 1 
A|---------------------------------------------------------------------------| 
E|---------------------------------------------------------------------------| 


Till the End:  
  
Guitar with Octaver -1 / bass 1:  
e|---------------------------------------------------------------------------| 
B|---------------------------------------------------------------------------| 
G|---------------------------------------------------------------------------| 
D|---------------------------------------------------------------------------|  
A|----3-3-3-3-3-3-3-3-3------------------------------------------------------| 
E|---------------------------------------------------------------------------| 


    Guitar 2  
e|---------------------------------------------------------------------------| 
B|----8-8-5-5--5-5-5------8-8-10-10------------------------------------------| 
G|-------------------5-5------------8-8-8-10---------------------------------| 
D|---------------------------------------------------------------------------|  
A|---------------------------------------------------------------------------| 
E|---------------------------------------------------------------------------| 


************************************ 

| /   slide up 
| \   slide down 
| h   hammer-on 
| p   pull-off 
| ~   vibrato 
| +   harmonic 
| x   Mute note 
| b   Bend 
| pb  Pre-bend 
| br  Bend release 
| pbr Pre-bend release 
| brb Bend release bend 

************************************ 
	  

No existe una video leccione para esta canción

request
LosAcordes
Buscar
auto avanzar rasgueos aumentar disminuir cambiar color esconder acordes gráficos
losacordes exhibir acordes losacordes youTube video losacordes ocultar tabs losacordes ir hacia arriba losacordes